Afi

Rizzo In The Box(correct) Bass Tabs



More from Afi

Afi Tabs
Afi Chords
Afi Bass
Afi Lyrics



Rizzo In The Box by AFI
Album: Answer That And Stay Fashionable

This is 100% correct

Intro

g------------------------------------------------------------------
d------------------------------------------------------------------
a---444444--77777--444444-------------44444--77777-----------------
E---------------------------7777777-----------------55555---7777---

Verse Part 1

g--------------------------------------------------------------------------
d-------------------------------------------7-5-4-5-4-------9-7-6-7-6------
a---4444--7777--4444---------4444--7777----------------5---------------7---
E---------------------7777---------------5----------------7----------------

Verse Part 2

g-----------------------------------------------------------------------------
d-------------------------------------------------7-5-4-5-4------9-7-6-7-6----
a---4444--7777--4444----------------4444-7777---------------5---------------7-
E---------------------77-55-44-22--------------5---------------7--------------

Chorus

g----------------------------
d----------------------------
a---7777--------7777--4------
E---------5555-----------7---

Do Verse Part 1 X1

Then this(Verse Pt 3)

g-----------------------------------------------------------------------------
d------------------------9-------9-----------------7-5-4-5-4------9-7-6-7-6---
a---4444--7777--4444----------------4444--7777----------------5-------------7-
E---------------------77-----77-----------------5---------------7-------------

Do The Chorus X12

End with this

g-----------9~---
d----------------
a---7~-----------
E----------------



Get this song at amazon.com      Ebay     Ringtones Ringtones  


Learn to play: Songwriting, Piano, Harmonica, Guitar
More AFI lyrics available at Muzikum

Related Afi Bass Tabs

The Deathless Ones bass
God Called In Sick Today bass
Checkered Demon bass
Despair Factor bass
This Time Imperfect bass
Love Like Winter bass
Paper Airplanes (makeshift Wings) bass
My Michelle bass
Aspirin Free bass
Cereal wars bass
Of Seasons bass
Yurf Rendenmein bass
File13 bass
The Leaving Song Part 2 bass
Catch A Hot One bass
Todays Lesson bass
Rizzo In A Box bass
Sacrifice Theory bass
Synesthesia bass
Leaving Song bass


Guitar Tabs









All tabs are property and copyright of their owners. All tabs provided for educational purposes only. Privacy Policy, DMCA