Afi

Afi - Fall Children Intro guitar tab

Here it is the intro to FALL CHILDREN

I didn't do the rest because I'm not

sure if it's right.

The song Is In 'eBGDAE'

e-------------------------------------------

B-------------------------------------------

G-------------------------------------------

D---------9-----8---------------------------

A---7---7---7-----7---9---10---9/10---------

E-0---0-------0-----0---0----0--------------

e-------------------------------------------

B-------------------------------------------

G-------------------------------------------

D------9---------9--------7---10-7----------

A---10---10---10---10---9---9------9--------

E-0---------0---------0--------------0------

e-------------------------------------------

B-------------------------------------------

G-------------------------------------------

D---------9-----8---------------------------

A---7---7---7-----7---9---10---9/10---------

E-0---0-------0-----0---0----0--------------

e-------------------------------------------

B-------------------------------------------

G-------------------------------------------

D-----4-------4-----------------------------

A---5---5---5---5---------------------------

E-0-------0-------0~~~~~~~------------------

Get this song at:  amazon.com sheetmusicplus.com

Share your thoughts

0 Comments found