Afi

Afi - File Thirteen bass tab

-------------------------------------------------------------------------------

FILE 13 - AFI

-------------------------------------------------------------------------------

Intro/Verse

G|-----------------------------]

D|-----------------------------]

A|----------------------5-----5]

E|-77777-5-77777-5-77777-333-5-]

Solo part after 1 time of intro

G|------------------------------7-7-9-10-9-7]

D|-------------------------7-7-9-9-----------]

A|----------------------7-9-9----------------]

E|-77777-5-77777-5--7-10---------------------]

Chorus

G|-----------------]

D|-----------------]

A|----5555---------]

E|7777----5555-7777]

During Guitar Solo Thing

G|----------------------------------]

D|----------------------------------]

A|9999999999999999999979979979797979]

E|----------------------------------]

Ending

G|--------------------]

D|--------------------] X3

A|----5555---------7-9]

E|7777----5555-7-10---]

G|--------------------]

D|--------------------]

A|----5555-----7-9----]

E|7777----5555----7-10]

-------------------------------------------------------------------------------

Get this song at:  amazon.com sheetmusicplus.com

Share your thoughts

0 Comments found