Afi

Afi - New Patron Saints Of Angels guitar tab

-------------------------------------------------------------------------------

NEW PATRON SAINTS OF ANGELS - AFI

-------------------------------------------------------------------------------

BY: Pinel, Rene DTRUNKSSJ@HOTMAIL.COM

(The chords should be right but the rythm is not)

00:00

e|---------------------------------------------------------------------------

B|-------------------------------------(play this till the pick slide)-------

G|----------------------------9---------11-11-11-11-11-11-11-11-11-11--------

D|-(firts bass then)-7-7-7-7--9--9-9-9---------------------------------------

A|-------------------7-7-7-7--7--9-9-9---9--9--9--9--9--9--9--9--9--9--------

E|-------------------5-5-5-5-----7-7-7---------------------------------------

00:11

e|---------------------------------------------------------------------------

B|---------------------------------------------------------------------------

G|-9-9-9-9-9-9-9-9--7--5-5-5-5-5-5--7----------------------------------------

D|-9-9-9-9-9-9-9-9--7--5-5-5-5-5-5--7--7-7-7-7-7-7--9--10-10-10-10--9-9-9-9-- x2

A|-7-7-7-7-7-7-7-7--5--3-3-3-3-3-3--5--7-7-7-7-7-7--9--10-10-10-10--9-9-9-9--

E|-------------------------------------5-5-5-5-5-5--7---8--8--8--8--7-7-7-7--

00:24

e|---------------------------------------------------------------------------

B|---------------------------------------------------------------------------

G|-11-11-11-11-11--7-7-7-7---------11-11-11-11-11-----------9-9-9-9-9--------

D|-11-11-11-11-11--7-7-7-7--7-7-7--11-11-11-11-11--7-7-7-7--9-9-9-9-9--9-9-9-

A|--9--9--9--9--9--5-5-5-5--7-7-7---9--9--9--9--9--7-7-7-7--7-7-7-7-7--9-9-9-

E|--------------------------5-5-5------------------5-5-5-5-------------7-7-7-

e|---------------------------------------------------------------------------

B|---------------------------------------------------------------------------

G|-11-11-11-11-11-11-11-11--7-7-7-7-7-7-7-7----------------------------------

D|-11-11-11-11-11-11-11-11--7-7-7-7-7-7-7-7--9-9-9-9-9-9-9-9-9-9-9-----------

A|--9--9--9--9--9--9--9--9--5-5-5-5-5-5-5-5--9-9-9-9-9-9-9-9-9-9-9-----------

E|-------------------------------------------7-7-7-7-7-7-7-7-7-7-7-----------

00:36

e|---------------------------------------------------------------------------

B|---------------------------------------------------------------------------

G|-9-9-9-9-9-9-9-9--7--5-5-5-5-5-5--7----------------------------------------

D|-9-9-9-9-9-9-9-9--7--5-5-5-5-5-5--7--7-7-7-7-7-7--9--10-10-10-10--9-9-9-9-- x2

A|-7-7-7-7-7-7-7-7--5--3-3-3-3-3-3--5--7-7-7-7-7-7--9--10-10-10-10--9-9-9-9--

E|-------------------------------------5-5-5-5-5-5--7---8--8--8--8--7-7-7-7--

00:48

e|---------------------------------------------------------------------------

B|---------------------------------------------------------------------------

G|-11-11-11-11-11--7-7-7-7---------11-11-11-11-11-----------9-9-9-9-9--------

D|-11-11-11-11-11--7-7-7-7--7-7-7--11-11-11-11-11--7-7-7-7--9-9-9-9-9--9-9-9-

A|--9--9--9--9--9--5-5-5-5--7-7-7---9--9--9--9--9--7-7-7-7--7-7-7-7-7--9-9-9-

E|--------------------------5-5-5------------------5-5-5-5-------------7-7-7-

e|---------------------------------------------------------------------------

B|---------------------------------------------------------------------------

G|-11-11-11-11-11-11-11-11--7-7-7-7-7-7-7-7----------------------------------

D|-11-11-11-11-11-11-11-11--7-7-7-7-7-7-7-7--9-9-9-9-9-9-9-9-9-9-9-----------

A|--9--9--9--9--9--9--9--9--5-5-5-5-5-5-5-5--9-9-9-9-9-9-9-9-9-9-9-----------

E|-------------------------------------------7-7-7-7-7-7-7-7-7-7-7-----------

01:00

e|---------------------------------------------------------------------------

B|---------------------------------------------------------------------------

G|-11-11-11-11-11--7-7-7-7---------11-11-11-11-11-----------9-9-9-9-9--------

D|-11-11-11-11-11--7-7-7-7--7-7-7--11-11-11-11-11--7-7-7-7--9-9-9-9-9--9-9-9-

A|--9--9--9--9--9--5-5-5-5--7-7-7---9--9--9--9--9--7-7-7-7--7-7-7-7-7--9-9-9-

E|--------------------------5-5-5------------------5-5-5-5-------------7-7-7-

e|---------------------------------------------------------------------------

B|---------------------------------------------------------------------------

G|-11-11-11-11-11-11-11-11--7-7-7-7-7-7-7-7----------------------------------

D|-11-11-11-11-11-11-11-11--7-7-7-7-7-7-7-7--9-9-9-9-9-9-9-9-9-9-9-----------

A|--9--9--9--9--9--9--9--9--5-5-5-5-5-5-5-5--9-9-9-9-9-9-9-9-9-9-9-----------

E|-------------------------------------------7-7-7-7-7-7-7-7-7-7-7-----------

01:13

e-|--------------------------------------------------------------------------

B-|--------------------------------------------------------------------------

G-|-9-9-9-9--7--5-5--7--5-5------------7--5-5--7--5-5------------------------

D-|-9-9-9-9--7--5-5--7--5-5-(play 5x)--7--5-5--7--5-5-(play 5x)--------------

A-|-7-7-7-7--5--3-3--5--3-3------------5--3-3--5--3-3------------------------

E-|--------------------------------------------------------------------------

01:36

e|--------------------------------------------------------------------------

B|-----(~=let ring)---------------------------------------------------------

G|-9~--9~--9~--9~--11~--------------------------------9---------------------

D|-9~--9~--9~--9~---9~--(after bass plays)-7-7-7-7-7--9--9-9-9--------------

A|-7~--7~--7~--7~---9~---------------------7-7-7-7-7--7--9-9-9--------------

E|-----------------------------------------5-5-5-5-5-----7-7-7--------------

01:54

e|---------------------------------------------------------------------------

B|---------------------------------------------------------------------------

G|-11-11-11-11-11-11-11-11--7-7-7-7-7-7-7-7----------------------------------

D|-11-11-11-11-11-11-11-11--7-7-7-7-7-7-7-7--9-9-9-9-9-9-9-9-9-9-9-----------

A|--9--9--9--9--9--9--9--9--5-5-5-5-5-5-5-5--9-9-9-9-9-9-9-9-9-9-9-----------

E|-------------------------------------------7-7-7-7-7-7-7-7-7-7-7-----------

02:00

e|---------------------------------------------------------------------------

B|---------------------------------------------------------------------------

G|-11-11-11-11-11--7-7-7-7---------11-11-11-11-11-----------9-9-9-9-9--------

D|-11-11-11-11-11--7-7-7-7--7-7-7--11-11-11-11-11--7-7-7-7--9-9-9-9-9--9-9-9-

A|--9--9--9--9--9--5-5-5-5--7-7-7---9--9--9--9--9--7-7-7-7--7-7-7-7-7--9-9-9-

E|--------------------------5-5-5------------------5-5-5-5-------------7-7-7-

e|---------------------------------------------------------------------------

B|---------------------------------------------------------------------------

G|-11-11-11-11-11-11-11-11--7-7-7-7-7-7-7-7----------------------------------

D|-11-11-11-11-11-11-11-11--7-7-7-7-7-7-7-7--9-9-9-9-9-9-9-9-9-9-9-----------

A|--9--9--9--9--9--9--9--9--5-5-5-5-5-5-5-5--9-9-9-9-9-9-9-9-9-9-9-----------

E|-------------------------------------------7-7-7-7-7-7-7-7-7-7-7-----------

02:14

e|---------------------------------------------------------------------------

B|---------------------------------------------------------------------------

G|-11--11--11--11-----------------------------------------------------------

D|-11--11--11--11--

Get this song at:  amazon.com sheetmusicplus.com

Share your thoughts

0 Comments found