Afi

Afi - Narrative Of Soul Against Soul bass tab

-------------------------------------------------------------------------------

NARRATIVE OF SOUL AGAINST SOUL - AFI

-------------------------------------------------------------------------------

Intro/chorus

G|----------------------------------------------------|

D|----------------------------------------------------|

A|-------5---3----------------------------------------|

E|-0--3---------3---5--0------------------------------|

verse

G|---------------------------------------------------|

D|---------------------------------------------------|

A|-2--------2--5-------------------------------------|

E|----3--5--------5----------------------------------|

-------------------------------------------------------------------------------

Get this song at:  amazon.com sheetmusicplus.com

Share your thoughts

0 Comments found