Afi

Afi - Dream Of Waking guitar tab

-------------------------------------------------------------------------------

DREAM OF WAKING - AFI

-------------------------------------------------------------------------------

Tabbed by Jade

Intro: this has an anticipated rhythm

|---------------------------------------------|

|---------------------------------------------|

|---------------------------------------------|

|--9--9--10----12--13---9---9--10---12---15---|

|--7--8--8-----10--10---7---8--8----10---13---|

|--x--x--x-----x---x----x---x--x----x-----x---|

pre-verse:

|-------------------------------------------------------------------------|

|-------------------------------------------------------------------------|

|------------------------------------------------------------------7------|

|----------9--9--------7--7------9------------9--9-------7--7-------------|

|--7--7--7------10--10------9--9--10--7--7--7------10--10-----9--9--------|

|--------------------------------------------------------------------10---|

|--------------------------------------------------------------|

|--------------------------------------------------------------|

|--------------------------------------------x---x---x----7----|

|-----------9--9---------7--7--------9------10--12---9----7----|

|--7--7--7-------10--10--------9--9-----10--10--10--10----5----|

|---------------------------------------------------------5----|

verse:

|---------------------5-------------------------------------------------------7----|

|---------------------7-------------------------------------------------------8----|

|--9---------9--------7---9----------repeat previous phrase and---------------9----|

|-----9---------9-----7------9-------end verse building up on this------------9----|

|--7----10---7----10--5---7----10---------------chord-------------------------7----|

|--x-----x---x----x---5---x-----x---------------------------------------------x----|

bridge:

|--7---3---3---7---3---3---7---3---5---7-------------------x--|

|--8---5---3---8---5---7---8---3---7---7-------------------5--|

|--9---5---4---9---5---7---9---4---7---8----------------------|

|--9---5---5---9---5---7---9---5---7---9----------------------|

|--7---3---5---7---3---5---7---5---5---9---7--9--10--13-------|

|--7---3---3---7---3---5---7---3---5---7---x--x--x---x--------|

chorus: repeat 1st measure and

end chorus on this:

|-------------------3---5--------------------3---5--------------------------6----|

|-------------------3---7--------------------3---7--------------------------6----|

|--9--11--12--14----4---7---9---11-12--14----4---7--14---12---11---9--------7----|

|-------------------5---7--------------------5---7--------------------------8----|

|--7---9--10---12---5---5---7---9--10--12----5---5--12---10----9---7--------8----|

|--x---x---x----x---3---5---x---x---x---x----3---5---x----x----x---x--------6----|

verse2 is the same as the first except for the harmonics, which are A--7-- and D--9--

A--7-

Chorus2 is the same

Pre-breakdown: these are sustained chords

|--x---x---3---6--|

|--x---8---3---6--|

|--x---9---4---7--|

|--2---9---5---8--|

|--2---7---5---8--|

|--x---x---3---6--|

breakdown 1st half:

|--x--------5h--7h-----------x-------------x--------5h--7h-------x------------------|

|--x---5h------------7h------x-------------x---5h----------------x------------------|

|--x-------------------------x------4------x----------------7h---x----7---------9---|

|--2-------------------------2---2-----5---2---------------------2-------slide------|

|--2-------------------------2-------------2---------------------2----5--(4x)---7---|

|--x-------------------------x-------------x---------------------x----x---------x---|

breakdown 2nd half: repeat previous phrases and then

end with these chords:

|--x----------x---3---x---x-------------10----10--------10---10---10---12---13---x---|

|--x----------x---3---x---x-------------12----10--------12---10---12---14---15---x---|

|--x---7--9---x---4---x---x---7-----9---12----11--------12---11---12---14---15---x---|

|--2---slide--2---5---2---2------sl.----12----12--------12---12---12---14---15---2---|

|--2---5--7---2---5---2---2---5-----7---10----12--------10---12---10---12---13---2---|

|--x---x--x---x---3---x---x---x-----x---10----10--------10---10---10---12---13---x---|

-------------------------------------------------------------------------------

Get this song at:  amazon.com sheetmusicplus.com

Share your thoughts

0 Comments found