Afi

Afi - Todays Lesson bass tab

Song:Today's lesson

Band:AFI + Filth

Album:Shut Your Mouth and open your eyes

tabbed by:Adam piano36@aol.com

intro

G:---------------------------------------------------------------------

D:----------------------------------------------------------------------

A:------------------------------------------------------3-3-3-3-3-3-3-

E:-0-0-0-0-0-0-0-0--5-5-5-5-5-5-5--3-3-3-3-3-3-3-3-3----------------

Verse

G:---------------------------------------------------------------

D:---------------------------------------------------------------

A:---------------------------------------------------------------

E:--0---3-3---7-7---5--------------------------------------------------

might play those more times that it is shown

Chorus

G:---------------------------------------------------------------

D:---------------------------------------------------------------

A:------------------------5--7-7--5--7-7------------------------

E:--0--3-3--5-5--7-7--3-----------------------------------------

Get this song at:  amazon.com sheetmusicplus.com

Share your thoughts

0 Comments found