Afi

Afi - Transference bass tab

-------------------------------------------------------------------------------

TRANSFERENCE - A.F.I.

-------------------------------------------------------------------------------

This is a non-album song so you can really only get it of Kazaa or something, but it's a great song. Enjoy.

By: McJesus

>=slide

Intro:

G|-7-7-7-7-----------10-10-10-10--8-8-8-8-----------------------------------------|

D|-7-7-7-7--8-8-8-8--10-10-10-10--8-8-8-8-----------------------------------------|

A|----------8-8-8-8---------------------------------------------------------------|

E|--------------------------------------------------------------------------------|

(twice as fast)

G|-7-7-7-7-7-7-7-7-------------------10-10-10-10-10-10-10-10--8-8-8-8-8-8-8-8-----|

D|-7-7-7-7-7-7-7-7--8-8-8-8-8-8-8-8--10-10-10-10-10-10-10-10--8-8-8-8-8-8-8-8-----|

A|------------------8-8-8-8-8-8-8-8-----------------------------------------------|

E|--------------------------------------------------------------------------------|

Verse:(2x)

G|--------------------------------------------------------------------------------|

D|--------------------------------------------------------------------------------|

A|-5-5-5-5-5--------------------------------------------4-4-4-4-------------------|

E|------------1-1-1--3-3-3-3-3--4-4-4--5>0-----1-1-1-1----------------------------|

Chorus:(2x)

G|--------------------------------------------------------------------------------|

D|-------------------3-3-3-3------------------------------3-3-3-3--1-1-1-1--------|

A|-5-5-5-5--1-1-1-1------------3-3-3-3--5-5-5-5--1-1-1-1--------------------------|

E|--------------------------------------------------------------------------------|

Bridge:

G|---------------------------------------------------------------5-7-5------------|

D|---------------------------------------------------------5-6-7-------7-6-5------|

A|-5(let ring out)--555(real fast)--6-6-5--6-6-5-5-5-5-5-5-------------------8-7--|

E|-------------------------------------------------------------(not sure here)----|

Outro:

G|--------------------------------------------------------------------------------|

D|------------------3-3-3-3--5>0--------------------------------------------------|

A|-5(Hold)----------3-3-3-3--5>0--------------------------------------------------|

E|--------------------------------------------------------------------------------|

Order: Intro, verse, chorus, verse, chorus, bridge, verse, chorus, outro

Get this song at:  amazon.com sheetmusicplus.com

Share your thoughts

0 Comments found