Afi

Afi - The Days Of The Phoenix bass tab

Artist - AFI

Song - The Days of the Phoenix

Album - The Art of Drowning

Tabbed by - Alec MacDonald

Guitar intro first, then bass.

Intro (0:08)

G|-----------------------------------------------------|

D|-----------------------------------------------------| x 2

A|2--2m2----0--5--5m5----0-----------------------------|

E|--------------------------3--3m3-----0--5--5m5----0--|

Verse (0:17) "I remember when..."

G|---------------------------------------------------------------------------------------------------------|

D|----------4----------------------------------------------------------------------------------------------| x 2

A|2--2m2-------0--0m0--0-0---2--2m2----4--5--5m5----0------------4------------5----------------------------|

E|-----------------------------------------------------3--3m3-------4--4m4-------5--5m5-------5--5m5-------|

Verse (0:34) "The worlds were mystical as..."

G|---------------------------------------------------------------------------------------------------------|

D|---------------------------------------------------------------------------------------------------------|

A|2--2m2----2--0--0m0----0---2--2m2----2--5--5m5----5------------------------------------------------------|

E|-----------------------------------------------------3--3m3----3--4--4m4----4--5--5m5----5--5--5m5----5--|

Verse (0:43) "The time was so tangible..."

G|---------------------------------------------------------------------------------------------------------|

D|---------------------------------------------------------------------------------------------------------|

A|2--2m2----2--0--0m0----0---2--2m2----2--5--5m5----5------------------------------------------------------|

E|-----------------------------------------------------3--3m3----3--4--4m4----4--5--5m5----5--2--2m2----2--|

Pre-Chorus (0:51) "No one could see me..."

G|-----------------------------------------------|

D|-----------------------------------------------|

A|-----------------------------------------------|

E|3----3--3--3--3--3--3--5-5-5-5-5-5-5-5-5-5-5-5-|

Chorus (0:56) "Whoa, I fell into yesterday..."

G|-----------------------------------------|

D|-----------------------------------------| x 3

A|2--2m2---2/5--5m5------------------------|

E|---------------------3--3m3----3--3m3----|

Chorus (1:09) "ohhhh, I fell into fantasy..."

G|---------------------------------------------|

D|-------------------------------7-7-7-7-7-7-7-|

A|2--2m2---2/5--5m5----------------------------|

E|---------------------3--3m3------------------|

Interlude (1:13)

G|-----------------------------------------------------|

D|-----------------------------------------------------| x 2

A|2--2m2----2--5--5m5----5-----------------------------|

E|--------------------------3--3m3-----3--5--5m5----5--|

Verse (1:22) "The worlds were mystical as..."

G|---------------------------------------------------------------------------------------------------------|

D|---------------------------------------------------------------------------------------------------------|

A|2--2m2----2--0--0m0----0---2--2m2----2--5--5m5----5------------------------------------------------------|

E|-----------------------------------------------------3--3m3----3--4--4m4----4--5--5m5----5--5--5m5----5--|

Verse (1:30) "The time was so tangible..."

G|---------------------------------------------------------------------------------------------------------|

D|---------------------------------------------------------------------------------------------------------|

A|2--2m2----2--0--0m0----0---2--2m2----2--5--5m5----5------------------------------------------------------|

E|-----------------------------------------------------3--3m3----3--4--4m4----4--5--5m5----5--2--2m2----2--|

Pre-Chorus (1:39) "No one could see me..."

G|-----------------------------------------------|

D|-----------------------------------------------|

A|-----------------------------------------------|

E|3----3--3--3--3--3--3--5-5-5-5-5-5-5-5-5-5-5-5-|

Chorus (1:44) "whoa, I fell into yesterday..."

G|-----------------------------------------|

D|-----------------------------------------| x 3

A|2--2m2---2/5--5m5------------------------|

E|---------------------3--3m3----3--3m3----|

Chorus (1:57) "ohhh, I fell into fantasy..."

G|---------------------------------------------|

D|-------------------------------7-7-7-7-7-7-7-|

A|2--2m2---2/5--5m5----------------------------|

E|---------------------3--3m3------------------|

Interlude (2:01)

G|--------------------------------------------------------------------------------------------------------|

D|--------------------------------------------------------------------------------------------------------| x 4

A|2-------------------------------------------------------------------------------------------------------|

E|--------------------------5-------------------------3-------------------------5-------------------------|

Interlude (2:34) "No one could see me..."

G|------------------------------------------------------------------------|

D|------------------------------------------------------------------------|

A|------------------------------------------------------------------------|

E|3----3--3--3--3--3--3--5------------------------------------------------|

Rit>>>>>>>>>>> ^Hold------------------>

A la tempo

Chorus (2:42) "Whoa, I fell into yesterday..."

G|-----------------------------------------|

D|-----------------------------------------| x 3

A|2--2m2---2/5--5m5------------------------|

E|---------------------3--3m3----3--3m3----|

Chorus (2:55) "ohhh, I fell into fantasy..."

G|---------------------------------------------|

D|---------------------5--5m5----7-7-7-7-7-7-7-|

A|2--2m2---2/5--5m5----------------------------|

E|---------------------------------------------|

Outro (3:00) "Our dreams seemed not far away..."

G|-----------------------------------------------------|

D|-----------------------------------------------------| x 3

A|2--2m2----2--5--5m5----5-----------------------------|

E|--------------------------3--3m3-----3--5--5m5----5--|

Outro (3:13) "I fell into fantasy"

G|-----------------------------------------------------------------------------|

D|-----------------------------------------------------------------------------|

A|2--2m2----2--5--5m5----5----------------------------2------------------------|

E|--------------------------3--3m3-----3--5--5---------------------------------|

Hold last note.

Get this song at:  amazon.com sheetmusicplus.com

Share your thoughts

0 Comments found