Afi

Afi - Malleus Maleficarum guitar tab

/-slide up

*-harmonics

Intro -

e|----------------------7------------------------7---|

B|----------------------8------------------------8---|

G|-7/99/12/9--7/99/12/9-9---7/99/12/9--7/99/12/9-9---|

D|-7/99/10/9--7/99/10/9-----7/99/10/9--7/99/10/9-----|

A|-5/77/10/7--5/77/10/7-----5/77/10/7--5/77/10/7-----|

E|---------------------------------------------------|

Verse -

e|---------------------------------------------------------|

B|---------------------------------------------------------|

G|----------77--------------------77---------7--12--14--16-|

D|-222---55-77-99-222----222---55-77-99-22-----------------|

A|-222---55-55-99-222----222---55-55-99-22---9--10--12--14-|

E|-000---33----77-000----000---33----77-00-----------------|

Chorus - "As we all begin to burn"

e|-------------------------------------------------------------------------------|

B|-------------------------------------------------------------------------------|

G|-----77-444--------------777-4444------------77-444-------------------444444444|

D|-55--77-444-2222-----55--777-4444-22-----55--77-444-2222--5-55555555-----------|

A|-55--55-222-2222-----55--555-2222-22-----55--55-222-2222--5-55555555--222222222|

E|-33---------0000-----33-----------00-----33---------0000--3-33333333-----------|

Verse -

e|---------------------------------------------------------|

B|---------------------------------------------------------|

G|----------77--------------------77---------7--12--14--16-|

D|-222---55-77-99-222----222---55-77-99-22-----------------|

A|-222---55-55-99-222----222---55-55-99-22---9--10--12--14-|

E|-000---33----77-000----000---33----77-00-----------------|

Chorus - "As we all begin to burn"

e|-------------------------------------------------------------------------------|

B|-------------------------------------------------------------------------------|

G|-----77-444--------------777-4444------------77-444-------------------444444444|

D|-55--77-444-2222-----55--777-4444-22-----55--77-444-2222--5-55555555-----------|

A|-55--55-222-2222-----55--555-2222-22-----55--55-222-2222--5-55555555--222222222|

E|-33---------0000-----33-----------00-----33---------0000--3-33333333-----------|

Chorus (#2) - "can you feel me? go!"

e|*12-----------------------------------------------------------------------------|

B|*12-----------------------------------------------------------------------------|

G|*12---7/99/12/9----------7/99/12/9----------7/99/12/9----------7/99/12/9--------|

D|------7/99/10/9--2-5-2---7/99/10/9--5-7-2---7/99/12/9--2-5-2---7/99/12/9--5-7-2-|

A|------5/77/10/7--2-5-2---5/77/10/7--5-7-2---5/77/10/7--2-5-2---5/77/10/7--5-7-2-|

E|-----------------0-3-0--------------3-5-0--------------0-3-0--------------3-5-0-|

Bridge - "ashes fall as im rising up again..."

e|---------------------------------------|

B|---------------------------------------|

G|----9--10--11--13--------7--12--14--16-|

D|-2--9--8---9---11----------------------|

A|-2--7--8---9---11--------9--10--12--14-|

E|-0-------------------------------------|

Chorus - "As we all begin to burn"

e|-------------------------------------------------------------------------------|

B|-------------------------------------------------------------------------------|

G|-----77-444--------------777-4444------------77-444-------------------444444444|

D|-55--77-444-2222-----55--777-4444-22-----55--77-444-2222--5-55555555-----------|

A|-55--55-222-2222-----55--555-2222-22-----55--55-222-2222--5-55555555--222222222|

E|-33---------0000-----33-----------00-----33---------0000--3-33333333-----------|

Chorus (#2) - "can you feel me? go!"

e|*12-----------------------------------------------------------------------------|

B|*12-----------------------------------------------------------------------------|

G|*12---7/99/12/9----------7/99/12/9----------7/99/12/9----------7/99/12/9--------|

D|------7/99/10/9--2-5-2---7/99/10/9--5-7-2---7/99/12/9--2-5-2---7/99/12/9--5-7-2-|

A|------5/77/10/7--2-5-2---5/77/10/7--5-7-2---5/77/10/7--2-5-2---5/77/10/7--5-7-2-|

E|-----------------0-3-0--------------3-5-0--------------0-3-0--------------3-5-0-|

Outro -

e|-----------*12-------19*--------------------|

B|--*12---------------------------------------|

G|--------------------------------------------|

D|--------------------------------------------|

A|--------------------------------------------|

E|--------------------------------------------|

Get this song at:  amazon.com sheetmusicplus.com

Share your thoughts

0 Comments found