Afi

Afi - The Prayer Postion guitar tab

Artist: AFI

Song: The Prayer Position

Album: Black Sails In The Sunset

Intro (You can find the strumming.)

E|--0---0-0-0-0-0-0--0---0-0-0-0---|

B|--3/5-5-5-5-5-5-5--3/5-5-5-5-5/6-|

G|---------------------------------| x's 3

D|---------------------------------|

A|---------------------------------|

E|---------------------------------|

E| --0---0-0-0-0-0-0-----|

B|--3/5-5-5-5-5-5-5------|

G|-----------------------|

D|-----------------------|

A|-----------------------|

E|-----------------------|

Verse (riff A) (play verse to times)

E|---------------------------------------------------------|

B|---------------------------------------------------------|

G|---------------------------------------------------------|

D|--2-2-2-2-2-2---2-2-2-2-2-2-2-2-3-3---------0-0-0-0-0-0--|

A|--2-2-2-2-2-2---2-2-2-2-2-2-2-2-3-3--- x's 2-2-2-2-2-2-2-|

E|--0-0-0-0-0-0---0-0-0-0-0-0-0-0-1-1----------0-0-0-0-0-0-|

E|---------------------|----------------|-------------|

B|---------------------|----------------|second time play this at end

G|---------------------|----------------|-------------|

D|--5------3------7-7--| back to riff A |---4-2-------|

A|--5------3------7-7--|----------------|---4-2-------|

E|--3------3------5-5--|----------------|---2-0-------|

Chorus

E|---------------------------------------------------|

B|---------------------------------------------------|

G|--5-----7--9--5-----7--7--77--5-----7--9--5--------|

D|--5--5--7--9--5--5--7--7--77--5--5--7--9--5--5--7--|

A|--3--5--5--7--3--5--5--5--55--3--5--5--7--3--5--7--|

E|-----3-----------3---------------3-----------3--5--|

Bridge (2 times)

E|----------------------------------------------------------------|

B|----------------------------------------------------------------|

G|-----------------------------------------------3------------4---|

D|------0---------2-----0---------5----0--------------0-----------|

A|----2---3--3--2-----2---3--3--2----2---3--3--2---2---3--3--2----|

E|--0-------3--0----0------3--0----0-------3--0---0------3--0-----|

Get this song at:  amazon.com sheetmusicplus.com

Share your thoughts

0 Comments found