Afi

Afi - Over Exposure bass tab

the tuning is e-slack, low to high (Eb,Ab,Db,Gb)

intro

|----------------------------------------------------|

|----------------------------------------------------|

|----------------------------------------------------|

|-4--5--6----2--2-2-2-2-2-0-2-2-2-2-2-2-2-2-6----4-5-|

verse

|---------------------------------------|

|---------------------------------------|

|-----------4-4-----4-6/7-7-7-7-7-7-7-7-|

|-6-6-6-6-6-----6-6---------------------|

|-----------------------------------------|

|-4-4-4-4-4-5-5-4-4---4-4-4-4-4-5-5-4-4---|

|-------------------7-------------------7-|

|-----------------------------------------|

|---------------------------------------|

|---------------------------------------|

|-----------4-4-----4-6/7-7-7-7-7-7-7-7-|

|-6-6-6-6-6-----6-6---------------------|

|-----------------------------------------|

|-4-4-4-4-4-5-5-4-4---4-4-4-4-4-5-5-4-4-7-|

|-------------------7---------------------|

|-----------------------------------------|

chorus

|-----------------------------------------------------------------|

|---------------------------------6-6-6-6-6-6-6-6-4-4-4-4-4-4-6-8-|

|-----------------6-6-6-6-6-6-6-6---------------------------------|

|-6-6-6-6-6-6-6-6-------------------------------------------------|

|-----------------------------------------------------------------|

|---------------------------------6-6-6-6-6-6-6-6-4-4-4-4-4-6-7-8-|

|-----------------6-6-6-6-6-6-6-6---------------------------------|

|-6-6-6-6-6-6-6-6-------------------------------------------------|

|----------------|

|-8-----8--------|

|----------------|

|---6-6------4-5-|

end part 1

|---------------------------------|

|---------------------------------|

|---------------------------------|

|-6-6-6-6-6-6-6-6-6-6-6-6-6-6-6-6-|

end part 2

|-------------------------------------|

|-----------------------------------6-|

|-----4-4-4-4-4-4/7-7-7-7-7-7---------|

|-6-6-------------------------6-6-6---|

|---------------------------------------------|

|-8-----------------------------------8-----8-|

|-------4-4-4-4-4-4/7-7-7-7-7-7-7-------------|

|---6-6---------------------------4-5---6-6---|

|--------------------------------------------------|

|-----8---8----------8---8-8----------8------------|

|--------------------------------------------------|

|-4-5---6---0----4-5---6--------4-5-6----------4-5-|

|-------------------|

|-------------------|

|-------------------|

|-6--6--6--6--4-6---|

order:

intro X1

verse X1

chorus X1

verse X1

chorus X1

end part 1 X4

end part 2 X1

tabbed by AFIsilentbob

Get this song at:  amazon.com sheetmusicplus.com

Share your thoughts

0 Comments found