Afi

Afi - Of Greetings And Goodbyes bass tab

Band: AFI

Song: Of Greetings and Goodbyes

intro

G------------------------------------------

D------------------------------------------

A--7 slide 2------5------2--3--5-5----0----

E-------------0------3------------------0--

G---------------------------------------------------

D---------------------------------------------------

A--7 slide 2------5-------2--3--5-5----0------------

E-------------0------3--------------------2-2-2-2-2-

verse 1

G-----------------------------------------------

D-----------------------------------------------

A------------------------2--3--5-5----0---------

E--0-0--0-0-2--3-3----------------------0-0-----

G-------------------------------------------------

D-------------------------------------------------

A------------------------2--3--5-5----0-----------

E--0-0--0-0-2--3-3-----------------------2-2-2-2-2

G-------------------------------------------------

D-------------------------------------------------

A-------------------------2--3--5-5----0----------

E--0-0--0-0-2--3-3------------------------0-0-----

G------------------------------------------------------

D-----------------------------------------4444444-5----

A-------------------------2--3--55555555---------------

E--0-0--0-0-2--3-3-------------------------------------

chorus

G--------------------------------------------------------------------

D-------------------------------------------------------------------- x2

A--7--5-2--3-3----2--5--0--------------------------------------------

E--------------------------2--0-0------2--0---2--2/-3--2-5--3--2222-3

part after chorus

E--3-3-3-3-3-3-3-3-3-3-3-3-3-3--0-0-0-0

G------------------------------------------

D------------------------------------------

A--7 slide 2------5------2--3--5-5----0----

E-------------0------3------------------0--

G---------------------------------------------------

D---------------------------------------------------

A--7 slide 2------5-------2--3--5-5----0------------

E-------------0------3--------------------2-2-2-2-2-

verse 2

G-----------------------------------------------

D-----------------------------------------------

A------------------------2--3--5-5----0---------

E--0-0--0-0-2--3-3----------------------0-0-----

G-------------------------------------------------

D-------------------------------------------------

A------------------------2--3--5-5----0-----------

E--0-0--0-0-2--3-3-----------------------2-2-2-2-2

G-------------------------------------------------

D-------------------------------------------------

A-------------------------2--3--5-5----0----------

E--0-0--0-0-2--3-3------------------------0-0-----

G------------------------------------------------------

D-----------------------------------------4444444-5----

A-------------------------2--3--55555555---------------

E--0-0--0-0-2--3-3-------------------------------------

chorus

G--------------------------------------------------------------------

D-------------------------------------------------------------------- x2

A--7--5-2--3-3----2--5--0--------------------------------------------

E--------------------------2--0-0------2--0---2--2/-3--2-5--3--2222-3

bridge

E--0000000000000000000000000000

G-------with drums---------

D-------------------------- x 12

A------5-h-77777-----------

E------------------0-------

G-------------------------------

D-------------------------------

A--5--5--5--5-------------------

E-----------------2-2-2-2--3333-

chorus

G--------------------------------------------------------------------

D-------------------------------------------------------------------- x4

A--7--5-2--3-3----2--5--0--------------------------------------------

E--------------------------2--0-0------2--0---2--2/-3--2-5--3--2222-3

Get this song at:  amazon.com sheetmusicplus.com

Share your thoughts

0 Comments found