Afi

Afi - This Celluliod Dream guitar tab

Band: A.F.I. (A Fire Inside)

Song: This Celluloid Dream

Album: Sing The Sorrow

Guitarist: Jade Puget

Tuning: I tabbed this so it can be played in Standard Tuning.

Jade plays Sing the Sorrow half a step down tuned and the notes

and chords are a step up from what I tabbed.

All the notes and chords are tabbed with dashes between them. For example, the

11's and 10 in e|-9--- are the 11th and 10th frets, not 1 played twice or 1 and 0 B|-9---

G|-10--

D|-11--

A|-11--

E|-9---

h=hammer on

x=mute

/=side up

=slide down

Intro (The amount of times each note is played is probably wrong,

but the chords are correct)

e|-------------------------------------------------------------

B|-------------------------------------------------------------

G|-------------------------------------------------------------

D|-6-6-xx-6-6-5-x-6-6--6-6-5-6-6-x-x-6-6-5-x-6-6-6-6-6-6-6-6-5-

A|-8-8-xx-8-8-6-x-4-4--4-4-6-8-8-x-x-8-8-6-x-4-4-4-4-4-4-4-4-6-

E|-------------------------------------------------------------

From here on I didn't tab how much each note is played, it isn't hard

to find out. Listen to the song.

Intro Part 2

e|-6---9----4---2---9----4--------

B|-6---9----4---2---9----4--------

G|-7---10---5---3---10---5--------

D|-8---11---6---4---11---6--------

A|-8---11---6---4---11---6--------

E|-6---9----4---2---9----4--------

Intro Part 3. Another guitar plays this about 15 seconds into the song:

e|-------------------------------------------------------------

B|-------------------------------------------------------------

G|-3---11--10--6/8---5---3---11---10---------------------------

D|-x---x---x---x/x---x---x---x----x----------------------------

A|-1---9---8---4/6---3---1---9----8--11-9-8-4------------------

E|-------------------------------------------------------------

Verse (some of the notes are palm muted)

e|-6---4---2---4---6---4---2------------------------------------------

B|-6---4---2---6---6---4---2------------------------------------------

G|-6---5---3---6---6---5---3------------------------------------------

D|-8---6---4---6---8---6---4------------------------------------------

A|-8---6---4---4---8---6---4-------4h6p4------------------------------

E|-6---4---2---4---6---4---2---2----------4---------------------------

e|-6---4---2---4---6---4---2---4---4-------------6-----------------------

B|-6---4---2---6---6---4---2---6---4-----------6-6-----------------------

G|-6---5---3---6---6---5---3---6---5---------7-7-7-----------------------

D|-8---6---4---6---8---6---4---6---6-------8-8-8-8-----------------------

A|-8---6---4---4---8---6---4---4---6-----8-8-8-8-8-----------------------

E|-6---4---2---4---6---4---2---4---4---6-6-6-6-6-6-----------------------

Play the Intro Part 2 and Verse again.

Prechorus

e|----------------------------------------------------------4---

B|----------------------------------------------------------4---

G|----6------------6--5-----6------------6--5--6--8--6--5---5---

D|-8-----6--8---8--------8-----6--8---8---------------------6---

A|----------------------------------------------------------6---

E|----------------------------------------------------------4---

Chorus

e|-6---2---4---4--9----6---6---9----2---4-/-9----4---9----6--------

B|-6---2---6---4--11---8---6---9----2---6-/-11---4---11---8--------

G|-6---3---6---5--11---8---6---10---3---6-/-11---5---11---8--------

D|-8---4---6---6--11---8---8---11---4---6-/-11---6---11---8--------

A|-8---4---4---6--9----6---8---11---4---4-/-9----6---9----6--------

E|-6---2---4---4--9----6---6---9----2---4-/-9----4---9----6--------

Play the intro part 2 but replace the last two chords with

e|---------

B|---------

G|-6---5---

D|-x---x---

A|-4---3---

E|---------

Play the Verse, Prechorus and Chorus.

Bridge

e|-------------------------------------------------------------------------

B|--------2-2h4p1----------------------------------------------------------

G|-----3------------5---6---6---5---6-------5---6---6---5---6---8----------

D|--------------------8---8---8---6---6---6---8---8---8---6---6---6--------

A|-1------------------------------------6----------------------------------

E|-------------------------------------------------------------------------

Bridge(continued)

e|-------------------------------------------------------------

B|-------------------------------------------------------------

G|--5---6---5---6---5---5---6---5---6---8---6------------------

D|--8---8---6---6---6---8---8---6---6---6---6------------------

A|-------------------------------------------------------------

E|-------------------------------------------------------------

Bridge part 2

e|-1-/-9----1-/-11---1-/-9-------------

B|-3-/-11---3-/-11---3-/-11------------

G|-3-/-11---3-/-11---3-/-11--6-8-5-4---

D|-3-/-11---3-/-11---3-/-11--x-x-x-x---

A|-1-/-9----1-/-9----1-/-9---4-6-3-4---

E|-1-/-9----1-/-9----1-/-9-------------

Bridge part 3

e|-6---4---1----

B|-6---4---1----

G|-7---5---2----

D|-8---6---3----

A|-8---6---3----

E|-6---4---1----

Play the Chorus again.

Final Chorus

e|-------------------------------------------------------------

B|-------------------------------------------------------------

G|-3---11---10--6---6---8---6---5---8--------------------------

D|-x---x----x---x---x---x---x---x---x--------------------------

A|-1---9----8---4---4---6---4---3---6--------------------------

E|-------------------------------------------------------------

End on:

e|------

B|------

G|--3---

D|--x---

A|--1---

E|------

That's it. I gave you the notes and chords. I'm sure you can do the rest.

If not, email me at schecter889@yahoo.com

Get this song at:  amazon.com sheetmusicplus.com

Share your thoughts

0 Comments found