Afi

Afi - Paper Airplanes (makeshift Wings) guitar tab

Artist: AFI

Album: Sing The Sorrow

Song: Paper Airplanes (makeshift wings)

Klinger288

Standard tuning

EADGBe

Intro:

e: ---------------------------------------------------------

B: ---------------------------------------------------------

G: 11--13-13-13-111111--9-9-9-111111--13-13-13-111111-101010

D: x----x--x--x--x-x-x--x-x-x--x-x-x---x--x--x--x-x-x--x-x-x

A: 9-/-11-11-11/-9-9-9/-7-7-7/-9-9-9/-11-11-11/-9-9-9/-8-8-8

E: ---------------------------------------------------------

e: ----------------------------------------------------------------

B: ----------------------------------------------------------------

G: 11--13-13-13-111111--9-9-9-111111-------------------------------

D: x----x--x--x--x-x-x--x-x-x--x-x-x-------------------------------

A: 9-/-11-11-11/-9-9-9/-7-7-7/-9-9-9-------------------------------

E: ----------------------------------0-7^9-0-7^9-0-7^9-0-7^9--0-0-0

pm

Verse:

e: 5-5-5-5-5-5-5-5-5-5-5-5-5-5---7-7-7-7-7-7-7-7

B: 5-5-5-5-5-5-5-5-5-5-5-5-5-5---7-7-7-7-7-7-7-7

G: 6-6-6-6-6-6-6-6-6-6-6-6-6-6---8-8-8-8-8-8-8-8

D: 7-7-7-7-7-7-7-7-7-7-7-7-7-7---9-9-9-9-9-9-9-9

A: 7-7-7-7-7-7-7-7-7-7-7-7-7-7---9-9-9-9-9-9-9-9

E: 5-5-5-5-5-5-5-5-5-5-5-5-5-5---7-7-7-7-7-7-7-7

e--------------------------------------------------------------4-4-4--5-5-5

B:-----------------1212121212----9-9-9-9-9-9-9-9---1010101010--4-4-4--5-5-5

G: 9-9-9--8-8-8-----x-x-x-x-x----x-x-x-x-x-x-x-x----x-x-x-x-x--5-5-5--6-6-6

D: x-x-x--x-x-x-----9-9-9-9-9----6-6-6-6-6-6-6-6----7-7-7-7-7--6-6-6--7-7-7

A: 7-7-7--6-6-6------------------------------------------------6-6-6--7-7-7

E: ------------------------------------------------------------4-4-4--5-5-5

or...

e: --------------------------------------------------------------

B: --------------------------------------------------------------

G: ---------------------16-16-16-16-16--13-13-13-13-13---12-12-12

D: 14-14-14--13-13-13----x--x--x--x--x---x--x--x--x--x----x--x--x

A: -x--x--x---x--x--x---14-14-14-14-14--11-11-11-11-11---10-10-10-

E: 12-12-12--11-11-11---------------------------------------------

Pre-Chorus: Palm mute where necessary

e: --------------------------------------------------

B: --------------------------------------------------

G: --------------------------------------------------

D: 7-7-7-7---9-9--111111111111----7-7-7-----9-9-9-9-9

A: 7-7-7-7---9-9--111111111111----7-7-7-----9-9-9-9-9

E: 5-5-5-5---7-7---9-9-9-9-9-9----5-5-5-----7-7-7-7-7

e: 5-5-5-5-5-5----7-7-7-7-7-7---9-9-9-9-9-9-9------5-5-5-5----7-7-7-7-7-7-7-7

B: 5-5-5-5-5-5----7-7-7-7-7-7---9-9-9-9-9-9-9------5-5-5-5----7-7-7-7-7-7-7-7

G: 6-6-6-6-6-6----8-8-8-8-8-8---10101010101010-----6-6-6-6----8-8-8-8-8-8-8-8

D: 7-7-7-7-7-7----9-9-9-9-9-9---11111111111111-----7-7-7-7----9-9-9-9-9-9-9-9

A: 7-7-7-7-7-7----9-9-9-9-9-9---11111111111111-----7-7-7-7----9-9-9-9-9-9-9-9

E: 5-5-5-5-5-5----7-7-7-7-7-7----9-9-9-9-9-9-9-----5-5-5-5----7-7-7-7-7-7-7-7

e: ------------------------4-4-4-4-4-4---

B: --5-5-5-5-5---2-2-2-2-2---------------

G: --------------------------------------

D: --------------------------------------

A: --------------------------------------

E: --------------------------------------

Chorus:

e: -----------------------------------------------------

B: -----------------------------------------------------

G: -----------------------------------------------------

D:111111111111----2-2-2-2-2-----7-7-7-7-7------4-4-4-4-4

A:111111111111----2-2-2-2-2-----7-7-7-7-7------4-4-4-4-4

E: 9-9-9-9-9-9----0-0-0-0-0-----5-5-5-5-5------2-2-2-2-2

e: 9-9-9-9-9-9----7-7-7-7-7-7----5-5-5-5-5-5-5-5-5-------

B: 9-9-9-9-9-9----7-7-7-7-7-7----5-5-5-5-5-5-5-5-5-------

G:101010101010----8-8-8-8-8-8----6-6-6-6-6-6-6-6-6-------

D:111111111111----9-9-9-9-9-9----7-7-7-7-7-7-7-7-7-------

A:111111111111----9-9-9-9-9-9----7-7-7-7-7-7-7-7-7-------

E: 9-9-9-9-9-9----7-7-7-7-7-7----5-5-5-5-5-5-5-5-5-------

e: ----------------------------------------------------------------

B: ----------------------------------------------------------------

G: ---------------------------------------------------------------4

D: 2--2--1--1--1--4--4--3--3--3--2--2--1--1-----------------------4

A: ---------------------------------------------2-2--0--2-4--0-0--2

E: -----------------------------------------------------------pm---

e: ----------------------------------------------------------------------

B: ----------------------------------------------------------------------

G: 6-6-6-6-6-6-6-6-6---8-8-----------------------------------------------

D: 7-7-7-7-7-7-7-7-7---9-9-------2-2-2-2-2----4--1--3--3--3--4--3--3--3--

A: 7-7-7-7-7-7-7-7-7---9-9-------2-2-2-2-2-------------------------------

E: 5-5-5-5-5-5-5-5-5---7-7-------0-0-0-0-0-------------------------------

e: ----------------------------------------------------------------

B: ----------------------------------------------------------------

G: 6-6-6-6-6-6-6-6-6---8-8-----------------------------------------

D: 7-7-7-7-7-7-7-7-7---9-9--------2-2-2-2-2---4--1--3--3--3---4---6

A: 7-7-7-7-7-7-7-7-7---9-9--------2-2-2-2-2------------------------

E: 5-5-5-5-5-5-5-5-5---7-7--------0-0-0-0-0------------------------

e: ----------------------------------------

B: ----------------------------------------

G: ----------------------------------------

D: 4-/-6-6-6-6---4-/-6-6-6-6----7-\-6-6-6-6

A: 2-/-4-4-4-4---2-/-4-4-4-4----5-\-4-4-4-4

E: 0---0-0-0-0---0---0-0-0-0----0---0-0-0-0

Get this song at:  amazon.com sheetmusicplus.com

Share your thoughts

0 Comments found