Afi

Afi - The Last Kiss bass tab

-------------------------------------------------------------------------------

THE LAST KISS - AFI

-------------------------------------------------------------------------------

(intro)starts at 8 seconds

G|-----------------------|

D|-----------------------|

A|--8-----8----5--8------|

E|-----8----8------------|

(verse)notes in parenthisis are optional, i think it sounds better its up to

you

G|--------------------------------------------------|

D|--------------------------------------------------|

A|--5555(6)--(5-7)---------(1-3)1111-3333-----------|

E|--------6666----8888-1111-------------------------|

"i cant, stop the insects that ar feeding"

G|---------------------------------------------------------------------------|

D|-------------------------------------------------5-------------------------|

A|--7777777--9999999--7777777--99999-9-9-9---9-7-5---------------------------|

E|---------------------------------------------------------------------------|

(chours) now im on display.... only befor the guitar solo do this

G|------------------------------------|---------------------------------------|

D|-5555555--3333333--11-----33--------|-555555-333333-11----33----------------|

A|----------------------11------------|------------------11-------------------|

E|------------------------------------|-------------------------5~~~~~~~~~~~~~|

"please dont ask me what i think"

G|---------------------------------------------------------------------------|

D|---------------------------------------------------------------------------|

A|--5555-3333----------8888-7777-5555-3333---------8888-7777-----------------|

E|------------5555-6666-------------------5555-6666--------------------------|

(outro) im pretty sure it just a varition of the intro , something like this

G|---------------------------------------------------------------------------|

D|-------------------------------5h7-----------------------------------------|

A|-8-8---8---5--8-8---8----5-8-----------------------------------------------|

E|-----8---8--------8----8---------------------------------------------------|

===============================================================================

Get this song at:  amazon.com sheetmusicplus.com

Share your thoughts

0 Comments found