Afi

Afi - Fishbowl guitar tab

-------------------------------------------------------------------------------

FISHBOWL - AFI

-------------------------------------------------------------------------------

Intro:

e-|---------------------------------|

B-|---------------------------------|

G-|---------------------------------|

D-|---------5-5-5-5-2-2-2-2-4-4-4-4-|

A-|-2-2-2-2-3-3-3-3-0-0-0-0-2-2-2-2-|

E-|-0-0-0-0-------------------------|

Verse:

e-|-----------------------------------------------------------------

B-|-----------------------------------------------------------------

G-|-----------------------------------------------------------------

D-|-9-9-9-9-9-9-9-9-5-5-5-5-7-7-7-7-9-9-9-9-9-9-9-9-5-5-5-5---------

A-|-7-7-7-7-7-7-7-7-3-3-3-3-5-5-5-5-7-7-7-7-7-7-7-7-3-3-3-3-2-2-2-2-

E-|---------------------------------------------------------3-3-3-3-

e-|-----------------------------------------------------------------|

B-|-----------------------------------------------------------------|

G-|-----------------------------------------------------------------|

D-|-9-9-9-9-9-9-9-9-5-5-5-5-7-7-7-7-9-9-9-9-9-9-9-9-9-9-9-9-9-9-9-9-|

A-|-7-7-7-7-7-7-7-7-3-3-3-3-5-5-5-5-7-7-7-7-7-7-7-7-7-7-7-7-7-7-7-7-|

E-|-----------------------------------------------------------------|

Chorus:

e-|--------------------------------------------------------------------------|

B-|--------------------------------------------------------------------------|

G-|--------------------------------------------------------------------------|

D-|-9-9-9-9-12-12-12-12-7-7-7-7-7-7-7-7-9-9-9-9-12-12-12-12-7-7-7-7-12-11-10-|

A-|-7-7-7-7-10-10-10-10-5-5-5-5-5-5-5-5-7-7-7-7-10-10-10-10-5-5-5-5-10--9--8-|

E-|--------------------------------------------------------------------------|

Bridge:

e-|-------------------------------------------------------------------------

B-|-------------------------------------------------------------------------

G-|-------------------------------------------------------------------------

D-|-5-x-x-7-5---9-x-x-12--9-5-x-x-7-5---9-x-x-12--9-5-x-x-7-5---9-x-x-12--9-

A-|-7-x-x-7-7--10-x-x-10-10-7-x-x-7-7--10-x-x-10-10-7-x-x-7-7--10-x-x-10-10-

E-|-------------------------------------------------------------------------

e-|-------------------------------------------------------------|

B-|-------------------------------------------------------------|

G-|-------------------------------------------------------------|

D-|-12--9-12-12--9-12--9-12-12--9-12--9-12-12--9-12--9-12-12--9-|

A-|-10-10-10-10-10-10-10-10-10-10-10-10-10-10-10-10-10-10-10-10-|

E-|-------------------------------------------------------------|

-------------------------------------------------------------------------------

Get this song at:  amazon.com sheetmusicplus.com

Share your thoughts

0 Comments found