Afi

Afi - Total Immortal guitar tab

Title: Total Immortal (or Totalimmortal)

Artist: AFI

CD: All Hallows

Tabbed by: Kent (AFIGuiTaRDuDe854@aol.com)

Date: 8.15.2000

The brilliant Total Immortal, then.

Just a small correction in the intro here...

Intro

G|-----9-9---7-7-7------9-9--------------9-9---7-12-14-9-9-9-9--|

D|-2-2-9-9-5-7-7-7--2-2-9-9-5-x-x-x--2-2-9-9-5-7-12-14-9-9-9-9--|

A|-2-2-7-7-5-5-5-5--2-2-7-7-5-x-x-x--2-2-7-7-5-5-10-12-7-7-7-7--|

E|-0-0-----3--------0-0-----3-x-x-x--0-0-----3------------------|

Very fun to play.

Verse1

D|-7-8-5---7--|

A|-7-8-5---7--|

E|-5-6-4---5--|

This comes in when he mentiones the voiceless and the nameless ones,

specifically starts with the word "ones".

Verse2 (palm muted)

e|-0-0-0-3-3-5-5-7-0-3-5-3-5--|

Interesting thing that appears during the second part of the verse.

Pre-chorus start

G|-------------------10--|

D|-9-9-9-9-9-9-9-9-9-10--|

A|-9-9-9-9-9-9-9-9-9--8--|

E|-7-7-7-7-7-7-7-7-7-----|

pm\_________________/

Pre-chorus, *=play a lot of times

D|-2*--|

A|-2*--|

E|-0*--|

Start with palm muting, then lay it off.

Chorus1

G|-----------------7-7-7-7--|

D|-2-2-2-2-5-5-5-5-7-7-7-7--|

A|-2-2-2-2-5-5-5-5-5-5-5-5--|

E|-0-0-0-0-3-3-3-3----------|

Chorus2

G|-------------||--------------|

D|-------5-5-5-||-----5-7-7-7--|

A|-7-5-7-------||-7-9----------|

Bridge start, ~-let ring

G|-2~--|

D|-2~--|

A|-0~--|

Bridge

G|-9--9-9-9-9--9--9-9-9-7--9--9-9-9-9--9--9-9-9-9-9/10-----|

D|-9--9-9-9-9--9--9-9-9-7--9--9-9-9-9--9--9-9-9-9-9/10-2~--|

A|-7--7-7-7-7--7--7-7-7-5--7--7-7-7-7--7--7-7-7-7-9/8--2~--|

E|-----------------------------------------------------0~--|

End note

D|-2~--|

A|-2~--|

E|-0~--|

Get this song at:  amazon.com sheetmusicplus.com

Share your thoughts

0 Comments found