Afi

Afi - Cult Status guitar tab

-------------------------------------------------------------------------------

CULT STATUS - AFI

-------------------------------------------------------------------------------

Verse:

e-|----------------------------------------------|

B-|----------------------------------------------|

G-|----------------------------------------------|

D-|-5-5-5-5-5-5-7-7-7-----5-5-5-5-5-5-8-10-------|

A-|-3-3-3-3-3-3-5-5-5-6-6-3-3-3-3-3-3-6--8-8-8-8-|

E-|-------------------4-4------------------6-6-6-|

Chorus:

e-|-------------------------------------|

B-|-------------------------------------|

G-|-------------------------------------|

D-|-5-5-5-5-8-8-8-8-10-10-10-10---------|

A-|-3-3-3-3-6-6-6-6--8--8--8--8-8-8-8-8-|

E-|-----------------------------6-6-6-6-|

Bridge:

e-|-----------------------------------------------------------------

B-|-----------------------------------------------------------------

G-|-----------------------------------------------------13-15-13-12-

D-|-5-5-5-5-8-8-8-8-6-6-6-6-----5-5-5-5-8-8-8-8-6-6-6-6-xx-xx-xx-xx-

A-|-3-3-3-3-6-6-6-6-4-4-4-4-6-8-3-3-3-3-6-6-6-6-4-4-4-4-11-13-11-10-

E-|-------------------------4-6-------------------------------------

e-|---------------------------------------------------------|

B-|---------------------------------------------------------|

G-|-------------------------------------8-8-8-8-------------|

D-|-5-5-5-5-8-8-8-8-6-6-6-6-----5-5-5-5-x-x-x-x-6-6-6-6-----|

A-|-3-3-3-3-6-6-6-6-4-4-4-4-6-8-3-3-3-3-6-6-6-6-4-4-4-4-6-8-|

E-|-------------------------4-6-------------------------4-6-|

-------------------------------------------------------------------------------

Get this song at:  amazon.com sheetmusicplus.com

Share your thoughts

0 Comments found