Afi

Afi - Porphyria guitar tab

-------------------------------------------------------------------------------

PORPHYRIA - AFI

-------------------------------------------------------------------------------

Tabbed by Cody Freeman

E-mail: mahoney00@aol.com

Intro:

B5 G N.C. B5 E5

E|-------------------------|

B|-------------------------|

G|----------------------9--|

D|-----------------9----9--|

A|--9---10---12----9----7--|

E|--7----7----7----7----7--|

Verse:

E5 Bb5 A5 G5 C5 D5 G5 A5 G5 E5 Bb5 A5 G5 C5 D5 G5 A5 E5

E|-----------------------------------|------------------------------------|

B|-----------------------------------|------------------------------------|

G|-----------------5---7-------------|-----------------5---7--------------|

D|-2---8---7---5---5---7---5---7---5-|-2---8---7---5---5---7---5---7---2--|

A|-2---8---7---5---3---5---5---7---5-|-2---8---7---5---3---5---5---7---2--|

E|-0---6---5---3---3---5---3---5---3-|-0---6---5---3---3---5---3---5---0--|

Chorus:

C D G Em C D E5 C D G Em C D E5

E|--3----5----3----0--|--3----5-------|--3----5----3----0--|--3----5-------|

B|--5----7----3----0--|--5----7-------|--5----7----3----0--|--5----7-------|

G|--5----7----4----0--|--5----7-------|--5----7----4----0--|--5----7-------|

D|--5----7----5----2--|--5----7----2--|--5----7----5----2--|--5----7----2--|

A|--3----5----5----2--|--3----5----2--|--3----5----3----2--|--3----5----2--|

E|--3----5----3----0--|--3----5----0--|--3----5----3----0--|--3----5----0--|

Bridge: (Repeat first bar 3x, then second bar once)

E5 Bb5 A5 G5 A5 E5 G5 A5 B5 G N.C. B5 B Bsus4 B5

E|------------------------------|---------------------------------------------|

B|------------------------------|---------------------------------------------|

G|------------------------------|--------------------------------8----9---11--|

D|--2----8----7----5----7----2--|--5----7-------------------9-----------------|

A|--2----8----7----5----7----2--|--5----7----9---10---12----9-----------------|

E|--0----6----5----3----5----0--|--3----5----7----7----7----7----7----7----7--|

Outro: (Repeat 2x)

E5 E5 D5 C5 G5 A5 E5 E5 E5 D5 C5 G5 D5 E5

E|-----------------------------------|-----------------------------------|

B|-----------------------------------|-----------------------------------|

G|-------9----7----5-----------------|-------9----7----5---------7-------|

D|--2----9----7----5----5----7----2--|--2----9----7----5----5----7----2--|

A|--2----7----5----3----5----7----2--|--2----7----5----3----5----5----2--|

E|--0----7----5----3----3----5----0--|--0----7----5----3----3----5----0--|

And that's that. Please feel free to e-mail me with any corrections, comments, typos, anything of that nature.

-------------------------------------------------------------------------------

Get this song at:  amazon.com sheetmusicplus.com

Share your thoughts

0 Comments found