Afi

Afi - A Single Second bass tab

-------------------------------------------------------------------------------

A SINGLE SECOND - AFI

-------------------------------------------------------------------------------

By: Mike Rose

Intro:

e|-------------------------------------------------------------------|

B|-------------------------------------------------------------------|

G|-------------------------------------------------------------------|

D|-------------------------------------------------------------------|

A|-----------------------55555555------------------------------------|

E|-3-3-3-3-3-3-3-3--3--3---------------------------------------------|

Verse:

e|-------------------------------------------------------------------|

B|-------------------------------------------------------------------|

G|-------------------------------------------------------------------|

D|-------------------------------------------------------------------|

A|-----------------3-3-3-3-3--5-6------------------5-5-5-5-5--6-8----|

E|-3-3-3-3-3--5-6------------------3-3-3-3-3--5-6--------------------|

e|-------------------------------------------------------------------|

B|-------------------------------------------------------------------|

G|-------------------------------------------------------------------|

D|-------------------------------------------------------------------|

A|-----------------3-3-3-3-3--5-6--8-8-8-8-8--6-6-6--5-5-5-----------|

E|-3-3-3-3-3--5-6----------------------------------------------------|

Pre-Chorus:

e|-------------------------------------------------------------------|

B|-------------------------------------------------------------------|

G|-------------------------------------------------------------------|

D|-------------------------------------------------------------------|

A|-10-10-10-10-10-10--6-6-6-6-6-6---------------8-8-8-8-8-8----------|

E|---------------------------------6-6-6-6-6-6-----------------------|

Chorus:I feel so, I feel so lost:(

poor Davey should find a block parent.

e|-------------------------------------------------------------------|

B|-------------------------------------------------------------------|

G|-------------------------------------------------------------------|

D|-------------------------------------------------------------------|

A|-----------------------------3-3-3-3-3-3-3-3--5-6-5----------------|

E|-3-3-3-3-3-3-3--6-6-6-6-6-6----------------------------------------|

e|-------------------------------------------------------------------|

B|-------------------------------------------------------------------|

G|-------------------------------------------------------------------|

D|-------------------------------------------------------------------|

A|---------------------------1-1-1-1-1-1-1-1--3-4-3------------------|

E|-3-3-3-3-3-3--1-1-1-1-1-1------------------------------------------|

-------------------------------------------------------------------------------

Get this song at:  amazon.com sheetmusicplus.com

Share your thoughts

0 Comments found