Afi

Afi - Strength Through Wounding guitar tab

-------------------------------------------------------------------------------

STRENGTH THROUGH WOUNDING - AFI

-------------------------------------------------------------------------------

tabbed by ryanleeper96@hotmail.com

INTRO

e-|-- fade --|------------7-------10--10---------------------------------

B-|--- in ---|------------8-------11--12-------12------------------------

G-|----7-----|---7--8--9--9----7--12--12-----12--------------------------

D-|----7-----|---7--8--9--9----7--12--12--12-----------------------------

A-|----5-----|---5--6--7--7----5--10--10---------------------------------

E-|----5-----|---5--6--7--7----5--10--10---------------------------------

e-|----------------------------------------------------------------------

B-|----------------------------------------------------------------------

G-|-----12--12/14------14/13--13----9----10--9---------------------------

D-|-----------/----------/----------9----10--9---------------------------

A-|-----10--10/12------12/11--11----7----8---7---------------------------

E-|----------------------------------------------------------------------

MAIN PART 'again...'

e-|----------------------------------------------------------------------

B-|------------------wait------------------------------------------------

G-|-----------------awhile----------------------------------------------

D-|------------------------------8---5-----0-----0-----------------------

A-|-----0-----0------------------8---5-----7-----7-----------------------

E-|-----0-----0------------------6---3-----0-----0-----------------------

OUTRO

e-|----------------------------------------------------------------------

B-|----------------------------------------------------------------------

G-|----12--7--9-----------9---9-9----------------------------------------

D-|-----------9-----------9---9-9----------------------------------------

A-|----10--5--7-----------7---7-7----------------------------------------

E-|----------------------------------------------------------------------

-------------------------------------------------------------------------------

Get this song at:  amazon.com sheetmusicplus.com

Share your thoughts

0 Comments found