Afi

Afi - The Leaving Song Part 2 bass tab

Song: The Leaving Song Pt. II

Album: Sing the Sorrow [2003]

Words and Music by: AFI

Re-Written by: Joey lavoie [whats_this_dump@hotmail.com]

----------------------------------------------------------------------

Bass is tuned down one half step [low to high: Eb Ab Db Gb].

Moderate Rock - 90 beats per minute.

----------------------------------------------------------------------

Verse 1 [0:14]:

Gb|---------------------------------|----------------------------------|

Db|---------------------------------|----------------------------------|

Ab|--7--7-7-----7--(7)-7-7-------5--|--7--7-7-----7--(7)-7-7-------5---|

Eb|--------------------------7-7----|--------------------------7-7-----|

Gb|---------------------------------|----------------------------------|

Db|---------------------------------|----------------------------------|

Ab|--7--7-7----7--(7)-7-7------5-5--|--5---5--5--5--5------------------|

Eb|------------------------7-7------|------------------3--3--3--3/5--5-|

Gb|---------------------------------|----------------------------------|

Db|---------------------------------|----------------------------------|

Ab|--7--7-7-----7--(7)-7-7-------5--|--7--7-7-----7--(7)-7-7-------5---|

Eb|--------------------------7-7----|--------------------------7-7-----|

Gb|---------------------------------|----------------------------------|

Db|---------------------------------|----------------------------------|

Ab|--7--7-7----7--(7)-7-7------5-5--|--5---5--5--5--5------------------|

Eb|------------------------7-7------|------------------3--3--3--3/5--5-|

Pre-Chorus 1 [0:36]

Gb|---------------------------------|----------------------------------|

Db|---------------------------------|----------------------------------|

Ab|---------------------------------|----------------------------------|

Eb|--0--------------(0)-------3-0---|--0--------------(0)---------3-0--|

Gb|---------------------------------|----------------------------------|

Db|---------------------------------|----------------------------------|

Ab|---------------------------------|--7-7-7-7-7-0-5--(5)/17-17-17-17--|

Eb|--0-------------------------4-0--|----------------------------------|

Chorus 1 [0:47]:

Gb|---------------------------------|-----------------------------------------|

Db|---------------------------------|--------------------------9--------------|

Ab|--7---7-7-7---7-7\--------5-5-5--|---------7--7-7-(7)/10-10---12-10-12-10--|

Eb|--------------------3-3-3--------|--0--0-0---------------------------------|

Gb|---------------------------------|-----------------------------------------|

Db|--------------------5-5-5--------|7------7-----7-------7--------9-9--------|

Ab|-----------7---7-7--------5-5-5--|----7-----7-------7--------7------7-7----|

Eb|--0---0-0------------------------|-----------------------------------------|

Gb|---------------------------------|

Db|---------------------------------|

Ab|--------7-7-7-(7)-7-5-7-7-5---5--|

Eb|--0-0-0---------------------7----|

Verse 2 [1:01]:

Gb|---------------------------------|----------------------------------|

Db|---------------------------------|----------------------------------|

Ab|--7--7-7-----7--(7)-7-7-------5--|--7--7-7-----7--(7)-7-7-------5---|

Eb|--------------------------7-7----|--------------------------7-7-----|

Gb|---------------------------------|----------------------------------|

Db|---------------------------------|----------------------------------|

Ab|--7--7-7----7--(7)-7-7------5-5--|--5---5--5--5--5------------------|

Eb|------------------------7-7------|------------------3--3--3--3/5--5-|

Gb|---------------------------------|----------------------------------|

Db|---------------------------------|----------------------------------|

Ab|--7--7-7-----7--(7)-7-7-------5--|--7--7-7-----7--(7)-7-7-------5---|

Eb|--------------------------7-7----|--------------------------7-7-----|

Gb|---------------------------------|----------------------------------|

Db|---------------------------------|----------------------------------|

Ab|--7--7-7----7--(7)-7-7------5-5--|--5---5--5--5--5------------------|

Eb|------------------------7-7------|------------------3--3--3--3/5--5-|

Pre-Chorus 2 [1:22]:

Gb|---------------------------------|----------------------------------|

Db|---------------------------------|----------------------------------|

Ab|---------------------------------|----------------------------------|

Eb|--0--------------(0)-------3-0---|--0--------------(0)---------3-0--|

Gb|---------------------------------|----------------------------------|

Db|---------------------------------|----------------------------------|

Ab|---------------------------------|--7-7-7-7-7-0-5--(5)/17-17-17-17--|

Eb|--0-------------------------4-0--|----------------------------------|

Chorus 2 [1:33]:

Gb|---------------------------------|-----------------------------------------|

Db|---------------------------------|--------------------------9--------------|

Ab|--7---7-7-7---7-7\--------5-5-5--|---------7--7-7-(7)/10-10---12-10-12-10--|

Eb|--------------------3-3-3--------|--0--0-0---------------------------------|

Gb|---------------------------------|-----------------------------------------|

Db|--------------------5-5-5--------|--7------7-----7-------7--------9-9------|

Ab|-----------7---7-7--------5-5-5--|------7-----7-------7--------7------7-7--|

Eb|--0---0-0------------------------|-----------------------------------------|

Gb|---------------------------------|-------------------------------------------|

Db|---------------------------------|----------------------------9--------------|

Ab|--7-7-7--7-7-7\---------5-5-5----|---------7--7-7-7-(7)/10-10---12-10-12-10--|

Eb|----------------3-3-3------------|--0-0-0------------------------------------|

Gb|---------------------------------|-----------------------------------------|

Db|--------------------5-5-5--------|--7------7-----7-------7--------9-9------|

Ab|-----------7---7-7--------5-5-5--|------7-----7-------7--------7------7-7--|

Eb|--0---0-0------------------------|-----------------------------------------|

Interlude [1:55]:

Gb|---------------------------------|-----------------------------------------|

Db|---------------------------------|-----------------------------------------|

Ab|---------------------------------|-----------------------------------------|

Eb|--0-0-0-0---0-0-0---0-0-0-0-0-0--|--0-0-0-0----0-0-0----0-0-0-0-0-0--------|

Gb|---------------------------------|-----------------------------------------|

Db|---------------------------------|-----------------------------------------|

Ab|---------------------------------|--7--------5h7---------------5h7---------|

Eb|------------------0-0-0-0-0-0-0--|------0-0-------0---0-0-0-0------5h7-----|

Gb|---------------------------------|-----------------------------------------|

Db|---------------------------------|-----------------------------------------|

Ab|--5------7-7--------------10-10--|--7---7----5h7---------------5h7---------|

Eb|-----0-0------0---0-0-0-0--------|--------7------0---0-0-0-0-------5h7-----|

Gb|---------------------------------|

Db|---------------------------------|

Ab|--5------5h7-7---5-7--------5----|

Eb|----0-0--------------7-(7)----7--|

Bridge [2:16]:

[let ring into next measure] [let ring into next measure]

Gb|---------------------------------|-----------------------------------------|

Db|---------------------------------|-----------------------------------------|

Ab|--7------------------------------|--7--------------------------------------|

Eb|---------------------------------|-----------------------------------------|

[let ring into next measure]

Gb|---------------------------------|-----------------------------------------|

Db|---------------------------------|-----------------------------------------|

Ab|--7------------------------------|-----------------------------------------|

Eb|---------------------------------|-----------------------------------------|

Gb|---------------------------------|-----------------------------------------|

Db|---------------------------------|-----------------------------------------|

Ab|--7------7------7----(7)---------|--5----------------7-----(7)-------------|

Eb|------------------------------7--|----------7---------------------------7--|

Gb|---------------------------------|-----------------------------------------|

Db|---------------------------------|-----------------------------------------|

Ab|--------------10--(10)-----9/10--|--0--------------------------------------|

Eb|--8-----8------------------------|-----------------------------------------|

Gb|---------------------------------|-----------------------------------------|

Db|---------------------------------|-----------------------------------------|

Ab|---------------------------------|-----------------------------------------|

Eb|--0---0-0-0--0-0-0--0-0-0---0-0--|--0----0-0-0----0-0--0---0-0-0-----0-0---|

Gb|---------------------------------|-----------------------------------------|

Db|---------------------------------|-----------------------------------------|

Ab|---------------------------------|-----------------------------------------|

Eb|--0---0-0-0--0-0-0--0-0-0---0-0--|--0--0--0--0--0--0--0--0--0--------------|

Chorus 3 [2:50]:

Gb|---------------------------------|-----------------------------------------|

Db|---------------------------------|--------------------------9--------------|

Ab|--7---7-7-7---7-7\--------5-5-5--|---------7--7-7-(7)/10-10---12-10-12-10--|

Eb|--------------------3-3-3--------|--0--0-0---------------------------------|

Gb|---------------------------------|-----------------------------------------|

Db|--------------------5-5-5--------|--7------7-----7-------7--------9-9------|

Ab|-----------7---7-7--------5-5-5--|------7-----7-------7--------7------7-7--|

Eb|--0---0-0------------------------|-----------------------------------------|

Gb|---------------------------------|-------------------------------------------|

Db|---------------------------------|----------------------------9--------------|

Ab|--7-7-7--7-7-7\---------5-5-5----|---------7--7-7-7-(7)/10-10---12-10-12-10--|

Eb|----------------3-3-3------------|--0-0-0------------------------------------|

Gb|---------------------------------|-----------------------------------------|

Db|--------------------5-5-5--------|-----------------------------------------|

Ab|-----------7---7-7--------5-5-5--|-------7----------7------------7-7-5-5---|

Eb|--0---0-0------------------------|--5--5----5--5--5-----5-5-5-5------------|

Gb|---------------------------------|-----------------------------------------|

Db|-----------------------7---------|-----------------------------------------|

Ab|--5--5-5--5-5--5-5-5-5------5-5--|-----------------------------------------|

Eb|---------------------------------|--7----7-7----7-7----7-7----7-7---7-7----|

Gb|---------------------------------|

Db|---------------------------------|

Ab|---------------------------------|

Eb|--7--5--0--7--5--0--7--0---------|

----------------------------------------------------------------------------------

Questions? Comments? Hate mail? Send it all over to whats_this_dump@hotmail.com

Get this song at:  amazon.com sheetmusicplus.com

Share your thoughts

0 Comments found