Afi

Afi - Exsanguination guitar tab

-------------------------------------------------------------------------------

EXSANGUINATION - AFI

-------------------------------------------------------------------------------

By: retreat__@hotmail.com

Album: Black Sails in the Sunset

Instructions: find the beat and the P.M. yourself. It's easy

*= a few times the powerchord

Intro: (after bass)

e|---------------------------------------------------------------------------|

B|---------------------------------------------------------------------------|

G|-9-9-9-9-9-9--7-7-7---12-12-12--11-11-11--------------------------9-10-9---|

D|-9-9-9-9-9-9--X-X-X----X--X--X---X--X--X--2-2-2-5-7-7-2-2-2-5-5-7-X--X-X---|

A|-7-7-7-7-7-7--5-5-5---10-10-10---9--9--9--2-2-2-5-7-7-2-2-2-5-5-7-7--9-7---|

E|------------------------------------------0-0-0-3-5-5-0-0-0-3-3-5----------|

Riff 1:

e|------|

B|------|

G|--*---|

D|-2----|

A|-2----|

E|-0----|

Verse:

e|--------------------------------------------------------------------------------|

B|--------------------------------------------------------------------------------|

G|-9*-7*-5*----9*-7*-5*----------------9*-7*-5*----9*-7*-5*---------7-7-7-7--4*---|

D|-9--7--5--5*-9--7--5--5-X-X-X-5-5-4--9--7--5--5*-9--7--5--5-5-5-5-7-7-7-7--4--2-|

A|-7--5--3--5--7--5--3--5-X-X-X-5-5-4--7--5--3--5--7--5--3--5-5-5-5-5-5-5-5--2--2-|

E|----------3-----------3-X-X-X-3-3-2-----------3-----------3-3-3-3-------------0-|

1st chorus: bass only + play Riff 1 at the end

2nd verse:

e|-----------------------------------------------------------|

B|-----------------------------------------------------------|

G|--9*-7*-5*----------------9*-7*-5*---------7-7-7-7--4*-----|

D|--9--7--5--5-X-X-X-5-5-4--9--7--5--5-5-5-5-7-7-7-7--4--2---|

A|--7--5--3--5-X-X-X-5-5-4--7--5--3--5-5-5-5-5-5-5-5--2--2---|

E|-----------3-X-X-X-3-3-2-----------3-3-3-3-------------0---|

2nd chorus: bass only + play riff 1 at the end

bridge: (there are two guitar tracks so it's confusing, but this one is

good)

e|-------------------|

B|-------------------|

G|-9*-11*--12*--7*---|

D|-X---X----X---X----| play bridge 4X times

A|-7---9---10---5----|

E|-------------------|

2nd part of bridge:

e|-------------------------------------------------------|

B|-------------------------------------------------------|

G|-------7*-------7*---------------7*-------7*-------4*--|

D|-2--5*-7--2--5*-7--2-2-2-2-2--5*-7--2--5*-7----2*--4---|

A|-2--5--5--2--5--5--2-2-2-2-2--5--5--2--5--5----2---2---|

E|-0--3-----0--3-----0-0-0-0-0--3-----0--3-------0-------|

Last chorus:

2 times first part

e|-----------------|-----|

B|-----------------|-----|

G|-----5*------7*--|-----|

D|-2*--5---5*--7---|--2--|

A|-2---3---5---5---|--2--|

E|-0-------3-------|--0--|

===================================================================

Get this song at:  amazon.com sheetmusicplus.com

Share your thoughts

0 Comments found