Afi

Afi - Smile guitar tab

-------------------------------------------------------------------------------

SMILE - AFI

-------------------------------------------------------------------------------

By: Phillip K. (krazevodka@hotmail.com)

Song off the new album (TRACK 7). Play the clustered parts

pretty fast. Enjoy!

INTRO *=hold

E----------------------------------------------------------

B-weird scraping effect------------------------------------

G---------------------------9*-----------------------------

D-----------------------7*--9------------------------------

A-----------------------7---7------------------------------

E-----------------------5----------------------------------

VERSE The 12 12 at the end is played only the first time

E----------------------------------------------------------

B--------------------------------------------------------12

G---7---9-9-9---7---9---------7---9-9-9------------------12

D-9-7-9-9-9-9-9-7-9-9-5-7---9-7-9-9-9-9-----lots of these--

A-9-5-9-7-7-7-9-5-9-7-5-7---9-5-9-7-7-7-5h7p5-5h7p5-5h7p5--

E-7---7-------7---7---3-5---7---7--------------------------

VERSE CONTINUED

E----------------------------------------------------------

B----------------------------------------------------------

G---7---9-9-9---7---9---------7---9-9-9-8------------------

D-9-7-9-9-9-9-9-7-9-9-5-7---9-7-9-9-9-9-8-7-5--------------

A-9-5-9-7-7-7-9-5-9-7-5-7---9-5-9-7-7-7-6-7-5--------------

E-7---7-------7---7---3-5---7---7---------5-3--------------

CHORUS/POST CHORUS *=hold

E----------------------------------------------------------

B----------------------------------------------------------

G----10*-12-15----7---9-9-9--------------------------------

D----10--12-15--9-7-9-9-9-9---lots of these----------------

A-2*-8---10-13--9-5-9-7-7-7-5h7p5-5h7p5-5h7p5--------------

E-0-------------7---7--------------------------------------

2ND VERSE

E----------------------------------------------------------

B----------------------------------------------------------

G---7---9-9-9---7---9---7-----7---9-9-9-8------------------

D-9-7-9-9-9-9-9-7-9-9-5-7---9-7-9-9-9-9-8-7-5--------------

A-9-5-9-7-7-7-9-5-9-7-5-5---9-5-9-7-7-7-6-7-5--------------

E-7---7-------7---7---3-----7---7---------5-3--------------

2ND CHORUS *=hold

E----------------------0-0-0-0-0-0-0-0-0-0-0-0--------------

B----------------------6p5-6p5-6p5-6p5-6p5-6p5--------------

G-------7*--------------------------------------------------

D----5*-7--8*-10-13--------figure out how many times--------

A-2*-5--5--8--10-13----------to play the above part---------

E-0--3-----6--8--11-----------------------------------------

3RD VERSE

E-----------------------------------------------------------

B-----------------------------------------------------------

G---7---9-9-9---7---9---------7---9-9-9---------------------

D-9-7-9-9-9-9-9-7-9-9-5-7---9-7-9-9-9-9---lots of these-----

A-9-5-9-7-7-7-9-5-9-7-5-7---9-5-9-7-7-7-5h7p5-5h7p5-5h7p5---

E-7---7-------7---7---3-5---7---7---------------------------

3RD VERSE CONTINUED

E-----------------------------------------------------------

B-----------------------------------------------------------

G---7---9-9-9---7---9---------7---9-9-9---------------------

D-9-7-9-9-9-9-9-7-9-9-5-7---9-7-9-9-9-9---tons of these-----

A-9-5-9-7-7-7-9-5-9-7-5-7---9-5-9-7-7-7-5h7p5-5h7p5-5h7p5---

E-7---7-------7---7---3-5---7---7---------------------------

3RD VERSE/OUTRO

E------------0-0-0-0-0-0-0-0-0-0-0-0-0-0-0-0-0-0-0-0-0-0-0-0

B------------6p5-6p5-6p5-6p5-6p5-6p5-6p5-6p5-6p5-6p5-6p5-6p5

G-7---------------------------------------------------------

D-7-7-5-3-2----------------figure out how many times--------

A-5-7-5-3-2-----------------to play the above part----------

E---5-3-1-0-------------------------------------------------

-------------------------------------------------------------------------------

Get this song at:  amazon.com sheetmusicplus.com

Share your thoughts

0 Comments found