Afi

Afi - Miss Murder bass tab

I know these tabs are 100% correct fo sho just because i'm that

AWESOME!!! This is

MISS MURDER BASS TABS!!!!!!!!!

G:-------------------------------------------|

D:---7-------12---10-----5-------------------|

A:-------------------------------------------|x2

E:-5----5/10----8-----3-----3/---------------|

G:-------------------------------------------|

D:---7-------12---10-----5-----5-------------|

A:-------------------------------------------|x3

E:-5----5/10----8-----3-----3----------------|

G:-------------------------------------------|

D:-------------------------------------------|

A:1111335577777777---------------------------|

E:-------------------------------------------|

G:-------------------------------------------|

D:---7-------12---10-----5-------------------|

A:-------------------------------------------|x2

E:-5----5/10----8-----3----3/----------------|

G:-----------5555----------------------------|

D:------7777------7777-5555-5555-------------|

A:-------------------------------7777777777--|

E:-5555--------------------------------------|

G:-----------5555----------------------------|

D:------7777------7777-5555-5555-------------|

A:-------------------------------7777-7777---|

E:-5555--------------------------------------|

G:-------------------------------------------|

D:-------------------------------------------|

A:-------------------------------------------|

E:-5-55-55-55-55-55-55-55-33-33-33-33-00-00--|

G:---------------------------------------------|

D:---------------------------------------------|

A:--------------------------------------5556667|

E:-00-33-55-55-55-55-55-55-55-55-33-33-3-------|

G:-------------------------------------------|

D:---7------12----10-----5-------------------|

A:-------------------------------------------|

E:-5---5/10----8------3-----3/---------------|

G:-------------------------------------------|

D:---7------12----10-----5---5---------------|

A:-------------------------------------------|x2

E:-5---5/10----8------3----3-----------------|

G:-------------------------------------------|

D:-------------------------------------------|

A:-1111335577777777--------------------------|

E:-------------------------------------------|

G:------------------777777----------------------|

D:------777777999999------9999997779996666666666|

A:----------------------------------------------|

E:555555----------------------------------------|

G:------------------777777----------------------|

D:------777777999999------99999999996664445*10--|

A:----------------------------------------------|

E:555555----------------------------------------|

G:----------------------------------------------|

D:-77----77----77----77-------------------------|

A:-00----00----00----00-------------------------|

E:----------------------------------------------|

G:----------------------------------------------|

D:----------------------------------------------|

A:------------------5-55-5----------------------|

E:5-55-55-55-7-77-7--------7-77-77-77-5-55-55-55|

G:----------------------------------------------|

D:----------------------------------------------|

A:----------------------------------------------|

E:5-55-55-55-55-55-55-55-33-33-33-33-00-00-00---|

G:----------------------------------------------|

D:----------------------------------------------|

A:-----------------------------------5556667----|

E:-33-55-55-55-55-55-55-55-55-33-33-3-----------|

G:----------------------------------------------|

D:---7------12----10-----5----------------------|

A:----------------------------------------------|

E:-5---5/10-----8-----3-----3/------------------|

G:--------------------------------------------|

D:---7------12----10-----5---5----------------|

A:--------------------------------------------|x2

E:-5---5/10-----8-----3----3------------------|

G:----------------------------------------------|

D:----------------------------------------------|

A:-1111335577777777-----------------------------|

E:----------------------------------------------|

G:----------------------------------------------|

D:----------------------------------------------|

A:----------------------------------------------|

E:-5-----------------88------------55-----------|

G:----------------------------------------------|

D:----7-76-6------7-76-66------7-76-6-----------|

A:----------------------------------------------|

E:-5-5------8-85-5-------88-5-5-------888-3-55--|

G:-----------------------------------------575-5|

D:-----7777------------------------77775555-----|

A:------------------77776666--------------------|

E:-5555-----5-555555--------8885555-------------|

G:----------------------------------------------|

D:---------------------------------------555333-|

A:----77776666------------------------777-------|

E:5555--------8888-3-55---000000000000----------|

G:----------------------------------------------|

D:----------------------------------------------|

A:----------------------------------------------|

E:333-5-----------------------------------------|

G:----------------------------------------------|

D:---7------12----10-----5----------------------|

A:----------------------------------------------|

E:-5---5/10-----8-----3-----3/------------------|

G:--------------------------------------------|

D:---7------12----10-----5----5---------------|

A:--------------------------------------------|x2

E:-5---5/10-----8-----3----3------------------|

G:--------------------------------------------|

D:--------------------------------------------|

A:-1111335577777777---------------------------|

E:--------------------------------------------|

G:--------------------------------------------|

D:---7------12----10-----5--------------------|

A:--------------------------------------------|

E:-5---5/10-----8-----3----3/-----------------|

G:--------------------------------------------|

D:---7------12----10-----5----5---------------|

A:--------------------------------------------|

E:-5---5/10-----8-----3----3------------------|

G:--------------------------------------------|

D:--------------------------------------------|

A:-11113355775533-----------------------------|

E:---------------3335-5-----------------------|

/ = slide up

*10 = play note 10 times

Get this song at:  amazon.com sheetmusicplus.com

Share your thoughts

0 Comments found