Afi

Afi - The Despair Factor bass tab

Artist: A.F.I.

Track: The Despair Factor

Album: The Art Of Drowning

Note: I used the other Despair Factor tab as a main basis for this, I just added how many

times to play each

note, and altered somethings. It sounds right, and good. Enjoy, pkeaserate well/add

corrections.

Intro:

---------------------------------------

---------------------------------------

---------------------------------------

-00003355-00003355-33333333-56666-3333-

---------------------------------------

--------------------------------445577-

------------------------------55-------

-00003355-00003355-33333333-55---------

XX Pause XX

E|-0~2/--

Verse 1(2x) Verse 2:

-------------------------------------|--------------------------------------|

-------------------------------------|-------------------44-55-77-----------|

------------------55555555-22222222--|-----2222--22-33-55--------------9999-|

-00000000-33333333-------------------|-0000----33-----------------7777------|

Verse 2(cont.):

--------------------------------------

-------------------44-55-77-----------

-----2222--22-33-55---------9999------

-0000----33----------------------7777-

Chorus:

------------------------------------

-----5555-2222-5555----7777-5-4-2-0-

-3333--------------5555-------------

------------------------------------

XX Pause XX

Transition:

---------------------------------------

---------------------------------------

---------------------------------------

-00003355-00003355-33333333-56666-3333-

---------------------------------------

--------------------------------445577-

------------------------------55-------

-00003355-00003355-33333333-55---------

XX Pause XX

E|-0~2/--

Verse 3(same as Verse 2):

--------------------------------------|------------------------------------|

-------------------44-55-77-----------|-------------------44-55-77---------|

-----2222--22-33-55---------7777------|-----2222--22-33-55--------9999-----|

-0000----33----------------------9999-|-0000----33--------------------7777-|

Chorus(2x):

------------------------------------

-----5555-2222-5555----7777-5-4-2-0-

-3333--------------5555-------------

------------------------------------

====Bridge====

Part 1:

------------------------------9999-1111-

------5--7-9--7-10-9--10--12-----------

-2/7------------------------------------

----------------------------------------

Part 2(4x):

---------------------2222-4444-

-----------2233-5-5------------

-0--0-23-3---------------------

Part 3(2x):

---------------------------------------

---------------------------------------

---------------------------------------

-0000-(Pause)-0000-(Pause)-3--33-22-00-

Part 4(2x):

---------------------------------------

---------------------------------------

-------2/7777------2/7777--------------

-0000---------0000---------3--33-22-00-

Taken from The BassMasta -- http://www.tabs-database.com

Get this song at:  amazon.com sheetmusicplus.com

Share your thoughts

0 Comments found