Afi

Afi - Let It Be Broke bass tab

AFI

Song: Let It Be Broke

Album: Shut Your Mouth and Open Your Eyes!

Tabbed By Zack

Intro.

G----------------------------------------------------------------

D----------------------------------------------------------------

A----------------------------------------------------------------

E---7---3---8---6---3---3----------------------------------------

Verse Riff #1

I live in truth . . .

G----------------------------------------------------------------

D----------------------------------------------------------------

A----------------------------------------------------------------

E--0-2--0-2--0-2-2-2-2--0-2--3333--5555-------------------------- Repeat 2x

Verse Riff #2

No soft words from my mouth . .

G----------------------------------------------------------------

D----------------------------------------------------------------

A---------------------------------------------------------------7

E--7-7-6-7-6-0---7-7-6-7-6-0---7-7-6-7-6-0----7-7-8-10-----------

Chorus

I will release myself . . .

G----------------------------------------------------------------

D----------------------------------------------------------------

A--8-8--------------------------8-8----------9-9-9---------------

E-------11-9-9---6-6-4-4-1---------11-9-9------------------------ Repeat 2x

Intro.

Verse #1

Verse #2

Chorus

Intro

Verse #1

Verse #2 Chorus

Intro

Chorus

Get this song at:  amazon.com sheetmusicplus.com

Share your thoughts

0 Comments found