Afi

Afi - Miseria Cantare- The Beginning guitar tab

Tuning- Half Step Down (Low to High Eb Ab Db Gb Bb Eb)

Chords Used In Verse and Chorus (Listen To Song To Find Out The Progressions)

|---7------10-------5--------------------------------------------------------|

|---8------12-------7--------------------------------------------------------|

|---9------12-------7--------------------------------------------------------|

|---9------12-------7--------------------------------------------------------|

|---7------10-------5--------------------------------------------------------|

|---7------10-------5--------------------------------------------------------|

Outro

|----------------------------------------------------------------------------|

|----------------------------------------------------------------------------|

|---12--12--12-----11--11--11-----12--12--12-----14--14--14------------------|

|----x---x---x------x---x---x------x---x---x------x---x---x------------------|

|---10--10--10------9---9---9-----10--10--10-----12--12--12------------------|

|----------------------------------------------------------------------------|

|----------------------------------------------------------------------------|

|----------------------------------------------------------------------------|

|---12--12--12-----11--11--11-----12--12--12-----16--16--16------------------|

|----x---x---x------x---x---x------x---x---x------x---x---x------------------|

|---10--10--10------9---9---9-----10--10--10-----14--14--14------------------|

|----------------------------------------------------------------------------|

|----------------------------------------------------------------------------|

|----------------------------------------------------------------------------|

|---12--12--12-----11--11--11-----12--12--12-----14--14--14------------------|

|----x---x---x------x---x---x------x---x---x------x---x---x------------------|

|---10--10--10------9---9---9-----10--10--10-----12--12--12------------------|

|----------------------------------------------------------------------------|

|----------------------------------------------------------------------------|

|----------------------------------------------------------------------------|

|---12--12--12-----11--11--11-----12--12--12-----16--16--16-----------------|

|----x---x---x------x---x---x------x---x---x------x---x---x------------------|

|---10--10--10------9---9---9-----10--10--10-----14--14--14-----------------|

|----------------------------------------------------------------------------|

Get this song at:  amazon.com sheetmusicplus.com

Share your thoughts

0 Comments found