Afi

Afi - Rabbits Are Roadkill On Route guitar tab

tabs-database.com[http://www.tabs-database.com.com/]

Rabbits Are Roadkill On Route 37

AFI

Guitarst - Jade Puget

Myspace Records, Volume 1

Key:

- harmonic

(x) - palm muted

h - hammer on

p - pull off

INTRO

eb|--------------------|

bb|--------------------|

gb|--------------------|

db|-----------------------|

ab|-----------------------|

eb|-----------------------|

eb|-----------------|

bb|--------------------|

gb|-----------------------|

db|-----------------------|

ab|-----------------------|

eb|-----------------------|

eb|--------------------|

bb|--------------------|

gb|--------------------|

db|-----------------------|

ab|-----------------------|

eb|-----------------------|

eb|-----------------------|

bb|------7-------7--------|

gb|----7-------7--7-------|

db|--9-----7-7-----7------|

ab|-----------------------|

eb|-----------------------|

eb|-----------------------|

bb|-----7---7-------7-----|

gb|---7-------7---7-------|

db|-5-----7-----7---------|

ab|-----------------------|

eb|-----------------------|

eb|-----------------------|

bb|-------7-----7h8p------|

gb|-----7-----------7-----|

db|--9------7-7-----------|

ab|-----------------------|

eb|-----------------------|

eb|-----------------------|

bb|-----7------7h8p-------|

gb|---7------------7------|

db|-5------7-7------------|

ab|-----------------------|

eb|-----------------------|

VERSE

eb|-----------------------|

bb|-------------7----------|

gb|-----------7-----------|

db|--9-9-9-9-----------------|

ab|-----------------------|

eb|-----------------------|

eb|-----------------------|

bb|-------------7---------|

gb|-----------7-----------|

db|-7-7-7-7---------------|

ab|-----------------------|

eb|-----------------------|

eb|-----------------------|

bb|-------------7---------|

gb|-----------7-----------|

db|--5-5-5-5--------------|

ab|-----------------------|

eb|-----------------------|

eb|-----------------------|

bb|--7--------------------|

gb|--7--------------------|

db|--5--------------------|

ab|--7--------------------|

eb|-----------------------|

PRE-CHORUS

eb|-----------------------|

bb|-----------------------|

gb|-----------------------|

db|-(9)-(7)-(5)-(2)-------|

ab|-(9)-(7)-(5)-(2)-------|

eb|-(7)0(5)0(3)0(0)-------|

*play each palm muted chord eight times*

CHORUS

eb|-----------------------|a

bb|-----------------------|a

gb|-4-4-------------------|a

db|-4-4-55-77777777-------|a

ab|-2-2-55-77777777-------|a

eb|-----33-55555555-------|a

eb|-----------------------|b

bb|-----------------------|b

gb|---------444444444-----|b

db|-7-7-55--444444444-----|b

ab|-7-7-55--222222222-----|b

eb|-5-5-33----------------|b

*figure a*

eb|-----------------------|c

bb|-----------------------|c

gb|-----------11-9-7-6----|c

db|-77777777--11-9-7-6----|c

ab|-77777775--9--7-5-4----|c

eb|-55555555--------------|c

eb|-----------------------|

bb|-----------------------|

gb|-----------------------|

db|-5555--7777777777777777|

ab|-5555--7777777777777777|

eb|-3333--5555555555555555|

*figure b*

*figure c*

BRIDGE

eb|---10-------10----10---|

bb|------12------12-------|

gb|-11------11-----11-----|

db|-----------------------|

ab|-----------------------|

eb|-----------------------|

eb|---9-------9----9------|

bb|------12------12-------|

gb|-11------11-----11-----|

db|-----------------------|

ab|-----------------------|

eb|-----------------------|

eb|---12-------12----12---|

bb|------12------12-------|

gb|-11------11-----11-----|

db|-----------------------|

ab|-----------------------|

eb|-----------------------|

eb|---14-------14----14---|

bb|------12------12-------|

gb|-11------11-----11-----|

db|-----------------------|

ab|-----------------------|

eb|-----------------------|

i don't have the solo down yet. sorry.

questions or comments? - makeshiftwings2112(at)gmail.com

Added by tabs-database.com and our distinguished partners

Get this song at:  amazon.com sheetmusicplus.com

Share your thoughts

0 Comments found