Afi

Afi - Days Of The Phoenix guitar tab

Band: AFI

Track: Days Of The Phoenix

J (jayvalena@yahoo.com)

E|---5--2--2--2-----3-----------5-3-5-7-7-7--

B|-0--0--0---0----0----2--2-2--0-0-----0-0-0--

G|--------------------2--2-2-------------------------

D|------------------------------------------------

A|------------------------------------------------

E|------------------------------------------------

E|-----------5----------5-2-3-5---------5--2-3-5--------5--3-2-----2---

B|-0-3-2-3----3------3--------------3-3--3----------3-3---3-----3--0---

G|---------------------------------------------------------------------

D|---------------------------------------------------------------------

A|---------------------------------------------------------------------

E|---------------------------------------------------------------------

E|-------------------------------------------

B|-------------------------------------------

G|-2---------44444---22222---44444---77777---

D|-2---------44444---22222---44444---77777---

A|-0---------22222---00000---22222---55555---

E|-------------------------------------------

E|-------------------------------------------

B|-------------------------------------------

G|-------------------22222-22222-------------

D|---55555---22222---22222-22222-------------

A|---55555---22222---00000-00000-------------

E|---33333---00000---------------------------

E|-------------------------------------------

B|-------------------------------------------

G|-44444---22222---44444---77777-------------

D|-44444---22222---44444---77777-------------

A|-22222---00000---22222---55555-------------

E|-------------------------------------------

E|-----------------------------------------------------------

B|-----------------------------------------------------------

G|-------------------22222-----------------------------------

D|---55555---22222---22222--44444--55555-55555--77777-77777--

A|---55555---22222---00000--44444--55555-55555--77777-77777--

E|---33333---00000----------22222--33333-33333--55555-55555--

Chorus

E|---------------------------------

B|---------------------------------

G|-44444---77777-------------------

D|-44444---77777-----55555--55555--

A|-22222---55555-----55555--55555--

E|-------------------33333--33333--

E|---------------------------------

B|---------------------------------

G|-44444---77777-------------------

D|-44444---77777-----55555--77777--

A|-22222---55555-----55555--77777--

E|-------------------33333--55555--

Bridge

E|-------------------------

B|---------------------3---

G|------0-----------0------

D|---4----4------4---------

A|-2-----------0-----------

E|-------------------------

Bridge 2

E|--------------------3-3-3-2-2-2-0-0-

B|-0-0-0--3-3-3-2-2---0-0-0-0-0-0-0-0-

G|-4-4-4--4-4-4-4-4-------------------

D|------------------------------------

A|------------------------------------

E|------------------------------------

E|-----------------------------------------

B|-2-2-2--3-3-3--5-3--2-2-2--3-3-3--2-0----

G|-0-0-0--0-0-0--0-0--0-0-0--0-0-0--0-0----

D|-----------------------------------------

A|-----------------------------------------

E|-----------------------------------------

Riff

E|---------------------------

B|---------------------------

G|---------------------------

D|-55555-55555--77777-77777--

A|-55555-55555--77777-77777--

E|-33333-33333--55555-55555--

Outro

E|---5--2--2-------3-2-0-0-0------5--2-3-5-7-7-7--

B|-0--0--0------0----------------0-0-------0-0-0--

G|------------------------------------------------

D|------------------------------------------------

A|------------------------------------------------

E|------------------------------------------------

E|---------5------5-2-3-5---------5--2-3-5--------5--3-2--------

B|-0-3-2-3--3---3--------------3-3--3---------3-3---3-----3---2-

G|--------------------------------------------------------------

D|--------------------------------------------------------------

A|--------------------------------------------------------------

E|--------------------------------------------------------------

Get this song at:  amazon.com sheetmusicplus.com

Share your thoughts

0 Comments found