Afi

Afi - Jack The Ripper Bass guitar tab

intro

G|---------------------------------|

D|---------------------------------|

A|---------------------------------|

E|-----------------3-3-3-3-00-0-0--|

verse:

G|---------------------------------|

D|---------------------------------|

A|-222222222222225-----------------|x4

E|-----------------3-3-3-3-00-0-0--|

Chorus:

G|-----------------------------------------------------------------|

D|-----------------------------------------------------------------|

A|-5-5-5-5-5-5-5-5-------------------------------------------------|x2

E|-----------------5-5-5-5-5-5-5-5-3-3-3-3-3-3-3-3-5-5-5-5-5-5-5-5-|

verse

G|-----------------------------------------|

D|-----------------------------------------|

A|-222222222222222222222222222222222222222-|

E|-----------------------------------------|

G|---------------------------------|

D|---------------------------------|

A|-222222222222225-----------------|x6

E|-----------------3-3-3-3-00-0-0--|

Chorus:

G|-----------------------------------------------------------------|

D|-----------------------------------------------------------------|

A|-----------------------------------------------------------------|

E|------------------------------------------------------55-5-5-5-5-|

G|-----------------------------------------------------------------|

D|-----------------------------------------------------------------|

A|-5-5-5-5-5-5-5-5-------------------------------------------------|x3

E|-----------------5-5-5-5-5-5-5-7-3-3-3-3-3-3-3-3-5-5-5-5-5-5-5-5-|

Added by tabs-database.com and our distinguished partners

Get this song at:  amazon.com sheetmusicplus.com

Share your thoughts

0 Comments found