Afi

Afi - Todays Lesson (filth Cover) guitar tab

Main riff (Intro/Verse/Bridge)

e|--------------------------------------------------------------------|

B|--------------------------------------------------------------------|

G|--------------------------------------------------------------------|

D|-2-2-2--5-5-5--9-9-9--7-7-7-----------------------------------------|

A|-2-2-2--5-5-5--9-9-9--7-7-7-----------------------------------------|

E|-0-0-0--3-3-3--7-7-7--5-5-5-----------------------------------------|

Chorus

e|--------------------------------------------------------------------|

B|--------------------------------------------------------------------|

G|----------------------5-5-5-----------------------------------------|

D|-2-2-2--5-5-5--7-7-7--5-5-5--7/9-9-9--7/9-9-9-----------------------|

A|-2-2-2--5-5-5--7-7-7--3-3-3--5/7-7-7--5/7-7-7-----------------------|

E|-0-0-0--3-3-3--5-5-5------------------------------------------------|

Get this song at:  amazon.com sheetmusicplus.com

Share your thoughts

0 Comments found