Afi

Afi - Rabbits Are Roadkill On Rt. 37 bass tab

song-rabbits are roadkill on rt.37

artist-afi

tabbed by-alyssa

alright.. so i took forever to tab this out 100% perfect. and im sure everything

is right. the only part i have doubts on is in the chorus on the 8643 part. sorry

i tried

intro/verse 1

G|-33333333-11111111-------------------|

D|-------------------44444444-11111111-|

A|-------------------------------------|

E|-------------------------------------| x7

G|-33333333-11111111-------------------|

D|-------------------44444444-1~-------|

A|-------------------------------------|

E|-------------------------------------|

chorus

G|-333---1111-111---3333---------------|

D|-----4----------4--------------------|

A|-------------------------------------|

E|-------------------------------------|

G|-333---1111-1111---------------------|

D|-----4-----------8-6-4-3-------------|

A|-------------------------------------|

E|-------------------------------------|

G|-333---1111-111---3333---------------|

D|-----4----------4--------------------|

A|-------------------------------------|

E|-------------------------------------|

G|-333---1111-1111-6-5-3-1-------------|

D|-----4-------------------------------|

A|-------------------------------------|

E|-------------------------------------|

verse 2

G|-33333333-11111111-------------------|

D|-------------------44444444-11111111-|

A|-------------------------------------|

E|-------------------------------------| x5

G|-33333333-11111111--------------------------|

D|-------------------44444444-1-1-1-1-1-1-1-1-|

A|--------------------------------------------|

E|--------------------------------------------|

chorus

G|-333---1111-111---3333---------------|

D|-----4----------4--------------------|

A|-------------------------------------|

E|-------------------------------------|

G|-333---1111-1111---------------------|

D|-----4-----------8-6-4-3-------------|

A|-------------------------------------|

E|-------------------------------------|

G|-333---1111-111---3333---------------|

D|-----4----------4--------------------|

A|-------------------------------------|

E|-------------------------------------|

G|-333---1111-1111-6-5-3-1-3~----------|

D|-----4-------------------------------|

A|-------------------------------------|

E|-------------------------------------|

bridge 1

2:16

G|-----|

D|-4~--|

A|-----|

E|-----|

2:19

G|-----------------------------------------------|

D|-/66666666/88888888\66666666\44444444/88888\444|

A|-----------------------------------------------|

E|-----------------------------------------------|

2:26

G|------------------------------------|

D|-8888888888888888-66666666-33333333-|

A|------------------------------------|

E|------------------------------------|

Bridge 2

G|-------------------------------------|

D|-3-1-3-4--1-3-4-6-6\1----------------|

A|-------------------------------------|

E|-------------------------------------|x2

G|-------------------------------------|

D|-3-1-3-4-4--1-3-4-6~--1--------------|

A|-------------------------------------|

E|-------------------------------------|

G|-------------------------------------|

D|-3-1-3-4-4--1-3-4-6------------------|

A|-------------------------------------|

E|-------------------------------------|

ending chorus

G|-33333333-11111111-------------------|

D|-------------------44444444-11111111-|

A|-------------------------------------|

E|-------------------------------------|

G|-33333333-11111111----------11111111-|

D|-------------------44444444----------|

A|-------------------------------------|

E|-------------------------------------|

G|-3~--|

D|-----|

A|-----|

E|-----|

3:09

G|----------------------------------------------|

D|-88888888-1010101010101010--1111111111111111-13131313/-|

A|----------------------------------------------|

E|----------------------------------------------|

G|-333---1111-111---3333---------------|

D|-----4----------4--------------------|

A|-------------------------------------|

E|-------------------------------------|

G|-333---1111-1111-6-5-3-1-------------|

D|-----4-------------------------------|

A|-------------------------------------|

E|-------------------------------------|

G|-333---1111-111---3333---------------|

D|-----4----------4--------------------|

A|-------------------------------------|

E|-------------------------------------|

G|-333---1111-1111---------------------|

D|-----4-----------8-6-4-3-------------|

A|-------------------------------------|

E|-------------------------------------|

G|-333---1111-111---333----------------|

D|-----4----------4--------------------|

A|-------------------------------------|

E|-------------------------------------|

G|-333---1111-1111-6-5-3-1-3-----------|

D|-----4-------------------------------|

A|-------------------------------------|

E|-------------------------------------|

Get this song at:  amazon.com sheetmusicplus.com

Share your thoughts

0 Comments found