Afi

Afi - The Nephilim guitar tab

-------------------------------------------------------------------------------

THE NEPHILIM - AFI

-------------------------------------------------------------------------------

By: Romeo E (burritosk8punk269@hotmail.com)

* or PM - palm mute

h - hammer-on

x - pickslide

\ - slide down

Intro

e|---------------------------------------------------------------------------|

B|---------------------------------------------------------------------------|

G|------------9------------------------12-12-12-12-7-7-7-7-------------------|

D|-(feedback)-9------------------------12-12-12-12-7-7-7-7-------------------|

A|------------7-5h7-5h7-5h7------------10-10-10-10-5-5-5-5-------------------|

E|------------7-------------\\\\\\\\\\-10-10-10-10-5-5-5-5-------------------|

Verse

e|---------------------------------------------------------------------------|

B|---------------------------------------------------------------------------|

G|-7-9---------7-9---------7-9---------------7-7-7--7-9---------7-9----------|

D|-7-9-5-2-2-2-7-9-5-2-2-2-7-9-5-2-2-2-5-5-5-7-7-7--7-9-5-2-2-2-7-9-5-2-2-2--|

A|-5-7-5-2-2-2-5-7-5-2-2-2-5-7-5-2-2-2-5-5-5-5-5-5--5-7-5-2-2-2-5-7-5-2-2-2--|

E|-5-7-3-0-0-0-5-7-3-0-0-0-5-7-3-0-0-0-3-3-3-5-5-5--5-7-3-0-0-0-5-7-3-0-0-0--|

e|---------------------------------------------------------------------------|

B|-------------|------------PM---------------|-------------------------------|

G|-7-9---------7-7-7-9-9-9-7-7-7-9-9-9-9-7-7-7-9-9-9-7-7-7-------------------|

D|-7-9-5-2-2-2-7-7-7-9-9-9-7-7-7-9-9-9-9-7-7-7-9-9-9-7-7-7-------------------|

A|-5-7-5-2-2-2-5-5-5-7-7-7-5-5-5-7-7-7-7-5-5-5-7-7-7-5-5-5-------------------|

E|-5-7-3-0-0-0-5-5-5-7-7-7-5-5-5-7-7-7-7-5-5-5-7-7-7-5-5-5-xxxxxxxxxxx-------|

Chorus

e|---------------------------------------------------------------------------|

B|---------------------------------------------------------------------------|

G|-------------7-7-7-7-7-7-7-*-------***-----**-12-7-9-9-9-------------7-7-7-|

D|-5-5-5-5-5-5-7-7-7-7-7-7-7-7-7-2-2-222-2-2-22------------5-5-5-5-5-5-7-7-7-|

A|-5-5-5-5-5-5-5-5-5-5-5-5-5-7-7-2-2-222-2-2-22-10-5-7-7-7-5-5-5-5-5-5-5-5-5-|

E|-3-3-3-3-3-3-5-5-5-5-5-5-5-5-5-0-0-000-0-0-00------------3-3-3-3-3-3-5-5-5-|

e|---------------------------------------------------------------------------|

B|---------------------------------------------------------------------------|

G|-7-7-7-7-*-------***-----**-12-14-11-11-11---------------------------------|

D|-7-7-7-7-7-7-2-2-222-2-2-22------------------------------------------------|

A|-5-5-5-5-5-5-2-2-222-2-2-22-10-12--9--9--9---------------------------------|

E|-5-5-5-5-5-5-0-0-000-0-0-00------------------------------------------------|

Transition

e|---------------------------------------------------------------------------|

B|---------------------------------------------------------------------------|

G|---------4-7---------4-7-----------4-7---------4-7-7-7-7-7-7-7-7-11-11-11--|

D|-----5-------5---5-------5-----5-------5---5-------7-7-7-7-7-7-7-----------|

A|-7-7---7-------7---7-------7-7---7-------7---7-----5-5-5-5-5-5-5--9--9--9--|

E|---------------------------------------------------5-5-5-5-5-5-5--0--0--0--|

e|---------------------------------------------------------------------------|

B|---------------------------------------------------------------------------|

G|-11-14-14-14-14-14---------------------------------------------------------|

D|---------------------------------------------------------------------------|

A|--9-12-12-12-12-12---------------------------------------------------------|

E|--0--0--0--0--0--0---------------------------------------------------------|

Verse

Chorus

Breakdown

e|-----------------------------------------------------------------------7---|

B|-----------------------------------------------------------------------8---|

G|---------4-7---------4-7-----------4-7---------4-7-9---7--5---------9--9---|

D|-----5-------5---5-------5-----5-------5---5-------9---7--5-5--4----9--9---|

A|-7-7---7-------7---7-------7-7---7-------7---7-----7---5--3-5--4----7------|

E|---------------------------------------------------7---5--3-3--2----7------|

e|---------------------------------------------------------------------------|

B|---------------------------------------------------------------------------|

G|-7--5------------------------------------12-12-12-12-7-7-7-7---------------|

D|-7--5-5-44-4-4-4-4--2-let-ring-----------12-12-12-12-7-7-7-7---------------|

A|-5--3-5-44-4-4-4-4-----------------------10-10-10-10-7-7-7-7---------------|

E|-5--3-3-22-2-2-2-2-------------\\\\\\\\\-10-10-10-10-5-5-5-5-xxxxxxxxxxx---|

Chorus

Outro

e|---------------------------------------------------------------------------|

B|---------------------------------------------------------------------------|

G|-----------------------------|---PM----|-----------------------4-7---------|

D|-5-5-5-5-5-5-5-4-4-4-4-4-4-4-3-3-3-3-3-3-3-3-3-3-3-3-3-----5-------5---5---|

A|-5-5-5-5-5-5-5-4-4-4-4-4-4-4-3-3-3-3-3-3-3-3-3-3-3-3-3-7-7---7-------7---7-|

E|-3-3-3-3-3-3-3-2-2-2-2-2-2-2-1-1-1-1-1-1-1-1-1-1-1-1-1---------------------|

e|---------------------------------------------------------------------------|

B|---------------------------------------------------------------------------|

G|-4-7-----------4-7---------7-9---------------------------------------------|

D|-----5-----5-------5---5---7-9-2-------------------------------------------|

A|-------7-7---7-------7---7-5-7-2-------------------------------------------|

E|---------------------------5-7-0---------\\\\\\\\\\\\\\--------------------|

===============================================================================

Get this song at:  amazon.com sheetmusicplus.com

Share your thoughts

0 Comments found