Afi

Afi - Love Is A Many Splendored Thing bass tab

Love is a Many Splendored Thing

-AFI

Tabbed by Joey Lombardi (permanentwaves@hotmail.com)

Standard Tuning (G,D,A,E)

Intro

G|------------------------|

D|------------------------|

A|-7-77777-------5--------|

E|---------5--8-----------|

Verse

G|------------------------|

D|------------------------|

A|-7-77777-------5--------|

E|---------5--8-----------|

Chorus (I Hate You!...)

G|------------------------|

D|------------------------|

A|-2-22222----5-----------|

E|---------3-----3--------|

Bridge

G|--------------------------------|

D|----------------------2~~~~~~---|

A|--------------------------------|

E|-0~~~~~~0~~~~~~0~~~~~~----------| ~= Let it ring...

Bridge 2

G|-------------------------------------|

D|-------------------------------------|

A|-------------4----------------5------|

E|-0-0-0-0-3--------0-0-0-0-3------5---|

Play:

Intro..........x4

Verse..........x4

Chorus.........x4

Verse..........x4

Chorus.........x4

--Pause--

Bridge.........x1

Bridge 2.......x2

Verse..........x4

Chorus.........x8

Verse..........x1

Strum at will. End on an "E".

Taken from The BassMasta -- http://www.tabs-database.com

Get this song at:  amazon.com sheetmusicplus.com

Share your thoughts

0 Comments found