Afi

Afi - Leaving Song bass tab

Artist: AFI

Song: The Leaving Song

Tabbed By: Joey, g_zus_sux@hotmail.com

www.unarmedpunks.tk

This song actually doesnt have a bass guitar in it,but it sounds nice when my band throughs

it in there....enjoy!

verse/intro 1: "walked away .. heard them say..."

G-|-------------------------------------------------------------------------------|

D-|-------------------------------------------------------------------------------|x2

A-|---------------------5-5-5-5-5-----------3-3-3-3-3-----------------------------|

E-|-0-0-0-0-2-3-3-3-3-3-----------5-5-5-5-5-----------3-3-0-2-2-0-0-0-0-0-0-0-0-0-|

"hard to notice .. gleaming from the sky..."

G-|-------------------------------------------------------------|

D-|------------------------------------------------3--3--3--3--|x1

A-|-3-3-3-3-3-5-5-5-5-5-2-2-2-2-2---------3-3-3-3-3-----------3-|

E-|-------------------------------0-0-0-0-----------------------|

"hard to notice .. what is passing by..."

G-|-------------------------------------------------------------------------------|

D-|-------------------------------------------------------------------------------|x1

A-|---------------------5-5-5-5-5-----------3-3-3-3-3-----------------------------|

E-|-0-0-0-0-2-3-3-3-3-3-----------5-5-5-5-5-----------3-3-0-2-2-0-0-0-0-0-0-0-0-0-|

verse 2: "you walked away ... heard them say..."

G-|-------------------------------------------------------------------------------|

D-|-------------------------------------------------------------------------------|x1

A-|---------------------5-5-5-5-5-----------3-3-3-3-3-----------------------------|

E-|-0-0-0-0-2-3-3-3-3-3-----------5-5-5-5-5-----------3-3-0-2-2-0-0-0-0-0-0-0-0-0-|

"all the cracks they lead right to me and"

"all the cracks will crawl right through me"

G-|---------------------------------------------|

D-|-2-2-2-2-2-4-5-5-5-5-5-5-5-5-5-5-4-2-2-2-2-2-|x2

A-|---------------------------------------------|

E-|---------------------------------------------|

"all the cracks they lead right to me and"

"all the cracks will crawl right through me"

G-|--------------------------------------------|

D-|-0-2----2-4-5-5-5-5-5-5-5-5-5-5-4-2-2-2-2-2-|x2

A-|--------------------------------------------|

E-|--------------------------------------------|

G-|-----------------------------------------|

D-|-----------------------------------5-4-0-|x1

A-|-0-0-0-0-0-0-0-0-0/5-5-5-5-5-5-----------|

E-|-----------------------------------------|

verse 3: "you walked away ... heard them say..."

G-|-------------------------------------------------------------------------------|

D-|-------------------------------------------------------------------------------|x2

A-|---------------------5-5-5-5-5-----------3-3-3-3-3-----------------------------|

E-|-0-0-0-0-2-3-3-3-3-3-----------5-5-5-5-5-----------3-3-0-2-2-0-0-0-0-0-0-0-0-0-|

please rate...

any comments, corrections or, questions email me at g_zus_sux@hotmail.com

solo: done by guitar...

Taken from The BassMasta -- http://www.tabs-database.com

Get this song at:  amazon.com sheetmusicplus.com

Share your thoughts

0 Comments found