Afi

Afi - 37 mm guitar tab

[37mm]

[AFI]

[Decemberunderground]

By: Joshua Oliveira

Tuning:D# G# C# F# A# D#

Thers not much guitar in this song either so i tabbed out some of the

sounds yu can make here too..

[Intro/Noise] - [00:00] - [00:15]

- ----8-7--------8-7---|

- -10---------10-------|

- -------9~---------9~-|

- ---------------------|

- ---------------------|

- ---------------------|

[Verse 1 Bass] - [00:15] - [00:45]

[Chorus 1] - [00:45] - [01:03]

- -----------------------------------------------------------------|

- -----------------------------------------------------------------|

- -5-5-x-x-x-x-5-5-x-x-x-x-5-5-x-x-x-x-5-5-x-x-x-x-----------------|

- -3-3-x-x-x-x-3-3-x-x-x-x-5-5-x-x-x-x-5-5-x-x-x-x-3-3-x-x-x-x-3-3-|

- -------------------------3-3-x-x-x-x-3-3-x-x-x-x-3-3-x-x-x-x-3-3-|

- -------------------------------------------------1-1-x-x-x-x-1-1-|

-----------------------------------------------------------------|

-----------------------------------------------------------------|

---------------------------------5-5-x-x-x-x-5-5-x-x-x-x-5-5-x-x-|

-x-x-x-x-3-3-x-x-x-x-3-3-x-x-x-x-3-3-x-x-x-x-3-3-x-x-x-x-5-5-x-x-|

-x-x-x-x-3-3-x-x-x-x-3-3-x-x-x-x-------------------------3-3-x-x-|

-x-x-x-x-1-1-x-x-x-x-1-1-x-x-x-x---------------------------------|

-----------------------------------------------------------------|

-----------------------------------------------------------------|

-x-x-5-5-x-x-x-x-------------------------------------------------|

-x-x-5-5-x-x-x-x-5-5-x-x-x-x-5-5-x-x-x-x-5-5-x-x-x-x-5-5-x-x-x-x-|

-x-x-3-3-x-x-x-x-5-5-x-x-x-x-5-5-x-x-x-x-5-5-x-x-x-x-5-5-x-x-x-x-|

-----------------3-3-x-x-x-x-3-3-x-x-x-x-3-3-x-x-x-x-3-3-x-x-x-x-|

----

----

----

-7~-

-7~-

-5~-

[Verse 2 Bass] - [01:03] - [01:33]

[Chorus 2] - [01:33] - [01:47]

- -----------------------------------------------------------------|

- -----------------------------------------------------------------|

- -5-5-x-x-x-x-5-5-x-x-x-x-5-5-x-x-x-x-5-5-x-x-x-x-----------------|

- -3-3-x-x-x-x-3-3-x-x-x-x-5-5-x-x-x-x-5-5-x-x-x-x-3-3-x-x-x-x-3-3-|

- -------------------------3-3-x-x-x-x-3-3-x-x-x-x-3-3-x-x-x-x-3-3-|

- -------------------------------------------------1-1-x-x-x-x-1-1-|

-----------------------------------------------------------------|

-----------------------------------------------------------------|

---------------------------------5-5-x-x-x-x-5-5-x-x-x-x-5-5-x-x-|

-x-x-x-x-3-3-x-x-x-x-3-3-x-x-x-x-3-3-x-x-x-x-3-3-x-x-x-x-5-5-x-x-|

-x-x-x-x-3-3-x-x-x-x-3-3-x-x-x-x-------------------------3-3-x-x-|

-x-x-x-x-1-1-x-x-x-x-1-1-x-x-x-x---------------------------------|

-----------------------------------------------------------------|

-----------------------------------------------------------------|

-x-x-5-5-x-x-x-x-------------------------------------------------|

-x-x-5-5-x-x-x-x-5-5-x-x-x-x-5-5-x-x-x-x-5-5-x-x-x-x-5-5-x-x-x-x-|

-x-x-3-3-x-x-x-x-5-5-x-x-x-x-5-5-x-x-x-x-5-5-x-x-x-x-5-5-x-x-x-x-|

-----------------3-3-x-x-x-x-3-3-x-x-x-x-3-3-x-x-x-x-3-3-x-x-x-x-|

[Piano] - [01:47] - [02:17]

[Oooing Noise] - [02:17] - [02:31]

- ----9~-7~------------------|

- -10~---------(6)-(7)-9~-6~-|

- ----------7~---------------|

- ---------------------------|

- ---------------------------|

- ---------------------------|

[Bridge] - [02:31] - [02:46]

- -------------------------------|

- -7~-5~-5-3-2~---7~-5~-5-3-2-0~-|

- -------------2~----------------|

- -------------------------------|

- -------------------------------|

- -------------------------------|

[Chorus 3/Outro] - [02:31] - [03:16]

- -----------------------------------------------------------------|

- -----------------------------------------------------------------|

- -5-5-x-x-x-x-5-5-x-x-x-x-5-5-x-x-x-x-5-5-x-x-x-x-----------------|

- -3-3-x-x-x-x-3-3-x-x-x-x-5-5-x-x-x-x-5-5-x-x-x-x-3-3-x-x-x-x-3-3-|

- -------------------------3-3-x-x-x-x-3-3-x-x-x-x-3-3-x-x-x-x-3-3-|

- -------------------------------------------------1-1-x-x-x-x-1-1-|

-----------------------------------------------------------------|

-----------------------------------------------------------------|

---------------------------------5-5-x-x-x-x-5-5-x-x-x-x-5-5-x-x-|

-x-x-x-x-3-3-x-x-x-x-3-3-x-x-x-x-3-3-x-x-x-x-3-3-x-x-x-x-5-5-x-x-|

-x-x-x-x-3-3-x-x-x-x-3-3-x-x-x-x-------------------------3-3-x-x-|

-x-x-x-x-1-1-x-x-x-x-1-1-x-x-x-x---------------------------------|

-----------------------------------------------------------------|

-----------------------------------------------------------------|

-x-x-5-5-x-x-x-x-------------------------------------------------|

-x-x-5-5-x-x-x-x-5-5-x-x-x-x-5-5-x-x-x-x-5-5-x-x-x-x-5-5-x-x-x-x-|

-x-x-3-3-x-x-x-x-5-5-x-x-x-x-5-5-x-x-x-x-5-5-x-x-x-x-5-5-x-x-x-x-|

-----------------3-3-x-x-x-x-3-3-x-x-x-x-3-3-x-x-x-x-3-3-x-x-x-x-|

-----------------------------------------------------------------|

-----------------------------------------------------------------|

-5-5-x-x-x-x-5-5-x-x-x-x-5-5-x-x-x-x-5-5-x-x-x-x-----------------|

-3-3-x-x-x-x-3-3-x-x-x-x-5-5-x-x-x-x-5-5-x-x-x-x-3-3-x-x-x-x-3-3-|

-------------------------3-3-x-x-x-x-3-3-x-x-x-x-3-3-x-x-x-x-3-3-|

-------------------------------------------------1-1-x-x-x-x-1-1-|

-----------------------------------------------------------------|

-----------------------------------------------------------------|

---------------------------------5-5-x-x-x-x-5-5-x-x-x-x-5-5-x-x-|

-x-x-x-x-3-3-x-x-x-x-3-3-x-x-x-x-3-3-x-x-x-x-3-3-x-x-x-x-5-5-x-x-|

-x-x-x-x-3-3-x-x-x-x-3-3-x-x-x-x-------------------------3-3-x-x-|

-x-x-x-x-1-1-x-x-x-x-1-1-x-x-x-x---------------------------------|

-----------------------------------------------------------------|

-----------------------------------------------------------------|

-x-x-5-5-x-x-x-x-------------------------------------------------|

-x-x-5-5-x-x-x-x-5-5-x-x-x-x-5-5-x-x-x-x-5-5-x-x-x-x-5-5-x-x-x-x-|

-x-x-3-3-x-x-x-x-5-5-x-x-x-x-5-5-x-x-x-x-5-5-x-x-x-x-5-5-x-x-x-x-|

-----------------3-3-x-x-x-x-3-3-x-x-x-x-3-3-x-x-x-x-3-3-x-x-x-x-|

[Drums] - [03:16] - [03:54]

[Symbols Used]

~ Let Ring.

x Dead Note.

() These are Ghost Notes played very quietly.

Get this song at:  amazon.com sheetmusicplus.com

Share your thoughts

0 Comments found