Afi

Afi - Total Immortal bass tab

Song: Total Immortal

Arists: AFI

Tabbed By: Alysia Freshcoln *GerBeLFooD@aol.com*

BTA Tabbing Army Member

http://www.basstabarchive.com/

intro:

g|-----------------------------------7-9-7------------------------------9--|

d|-----------------------------5-7/9-------9\---------------------5--7--9--|

a|------7-------5---------7-------------------------7---------5------------|

e|--0-------3--------0--------------------------0--------3-----------------|

verse:

g|----------------------------------------------------------------------------

-----------------l

d|----------------------------------------------------------------------------

-----------------l

a|--7\---5-------7\-------5-----7\---5---------------------7\---5----------7\-

-----5---l

e|----------3---------3------------------3----5--6--3---------------3---------

--3----------l

gl--------------------------l

dl--------------------------l

al---7\---5----------8---|

el--------3---7-----------l

pre chorus:

|------over and over----|

|----(sliding at end)---|

|----------7------------|

|-----------------------|

chorus:

|-------------------(first half)-----------------------------|

|------------------------------------------------------------|

|--7----7-5-7----------2-3-4-5----5-4-5-6-7--5--7--------5-6-|

|-------------2-3----3-----------------------------3--7------|

|-------------(second half)-------------------------/11------|

|------------------------------------------------/9-----12---|

|--7----7-5-7----------2-3-4-5----5-4-5-6--X--7--------------|

|-------------2-3----3---------------------------------------|

I'm not sure if these are right

Get this song at:  amazon.com sheetmusicplus.com

Share your thoughts

0 Comments found