Afi

Afi - Story At Three bass tab

-----------------------------------------------------------------------------

STORY AT 3 - AFI

-----------------------------------------------------------------------------

* 16 times

" 8 times

' 6 times

, 4 times

Intro:

G--------------------------------------

D--------------------------------------

A-5/7,---5/7,---5/7,---5/7-7-11-11-14'-

E--------------------------------------

G-------------------------------------------

D-------------------------------------------

A-5/7,---5/7,---5/7,---5/7-7-11-11----------

E----------------------------------10-10-12-

Verse:

G----------------------------------------------------------

D----------------------------------------5-----------------

A-5-7-3--------------------7-5-3------------7/5-6-6--6-9-9-

E-----------3-3--5'-5'-7-7-------3-3-5-5-------------------

G------------------

D------------------

A-7*-----------3-5-

E----0'-0-0--3----

Chorus:

G----------------------------------

D----------------------------------

A----------------------------------

E-5"--1"--3"--1-3--5"--1"--3"--1-3-

G----------------------

D----------------------

A----------------------

E-3/5,--3/5,--3/5,-3-3-

Breakdown:

G----------------------- 6x

D-----------------------

A-------3-2,-------5-5/-

E-5-5-1------1/3-3------

Taken from The BassMasta -- http://www.tabs-database.com

Get this song at:  amazon.com sheetmusicplus.com

Share your thoughts

0 Comments found