Afi

Afi - Three And A Half guitar tab

Three and a Half

Transcribed by Offpunk

Artist: Afi

Album: A Fire Inside E.P.

Tuning: Standard (eBGDAE)

I tabbed this before but my computer messed up and submitted before i was done. and for

some reason this site won't let me fix it so im re-submitting it

Intro ()= Let ring Pm= Palm mute Hm= Harmonic

e----------|-----------

B—play 7X--|-----------

G----------|---99999999

D-(2)---XX-|-2-99999999

A-(2)---XX-|-2-77777777

E-(0)---XX-|-0---------

e------------------------------------------

B------------------------------------------

G-544-4-2444-4/222-2444-4/222-2444-4/222

D-544-4-2444-4/222-2444-4/222-2444-4/222

A-322-2-0222-2/000-0222-2/000-0222-2/000

E------------------------------------------

Verse

e----------------------------------------------------------------

B----------------------------------------------------------------

G-2-22222-4-44444-5-55555---------2-22222-4-44444-3-33333-6-66666

D-2-22222-4-44444-5-55555-5-55555-2-22222-4-44444-3-33333-6-66666

A-0-00000-2-22222-3-33333-5-55555-0-00000-2-22222-1-11111-4-44444

E-------------------------3-33333--------------------------------

e--------------------------------------------------------

B--------------------------------------------------------

G-2-22222-4-44444-5-55555-----------------4-44444-2-22222

D-2-22222-4-44444-5-55555-5-55555-2-22222-4-44444-2-22222

A-0-00000-2-22222-3-33333-5-55555-2-22222-2-22222-0-00000

E-------------------------3-33333-0-00000----------------

Chorus

e------------------------------------------

B------------------------------------------

G-544-4-2444-4/222-2444-4/222-2444-4/222

D-544-4-2444-4/222-2444-4/222-2444-4/222

A-322-2-0222-2/000-0222-2/000-0222-2/000

E------------------------------------------

e----------

B----------

G----------

D---2------ Play both parts 3 times or so

A---2-22222

E---0-22222

Hm -----

Finishing Note

Elet ring

B---12---

G---12---

D---12---

A---10---

E--------

That’s pretty much the whole song. During the bridge you play the intro and after twice

instead of pausing after each strums you palm mute. But I’m too lazy to tab it out

Get this song at:  amazon.com sheetmusicplus.com

Share your thoughts

0 Comments found