Afi

Afi - Checkered Demon guitar tab

-------------------------------------------------------------------------------

CHECKERED DEMON - A.F.I.

-------------------------------------------------------------------------------

By:Rudy De Stefano/Punker1028@aol.com

Intro: 0:01 (Many X's At Diff. Speed)

e|------------------------------------------|

B|------------------------------------------|

G|--44444444--------------------------------|

D|--44444444--55555555--77777777--44444444--|

A|--22222222--55555555--77777777--44444444--|

E|------------33333333--55555555--22222222--|

Verse: 0:35 (4x)

e|------------------------|

B|------------------------|

G|--44444444--7777--9999--|

D|--44444444--7777--9999--|

A|--22220222--5555--7777--|

E|------------------------|

Chorus (Same As Intro): 0:46 (2x)

Verse: 0:57 (4x)

Chorus (Same As Intro): 1:08 (4x)

Bridge: 1:30 (4x)

I-PM-I I-PM-I

e|--------------------------|

B|--------------------------|

G|--4444--9--7--------4--2--|

D|--4444--9--7--5555--4--2--|

A|--2222--7--5--5555--2--0--|

E|--------------3333--------|

End Of Bridge: 1:40 (1x)

Each Chord Is Played A Lot

e|--------------|

B|--------------|

G|--4-----------|

D|--4--7--5--4--|

A|--2--7--5--4--|

E|-----5--3--2--|

Verse: 1:52 (4x)

Outro: 2:03 (1x)

e|-------------------------|

B|-------------------------|

G|--99999999--77777777--4--|

D|--99999999--77777777--4--|

A|--77777777--55555555--2--|

(That's It...Listen To It For The Rythm)

===============================================================================

Get this song at:  amazon.com sheetmusicplus.com

Share your thoughts

0 Comments found