Afi

Afi - File guitar tab

--------------------------------------------------------------

FILE 13 - AFI

--------------------------------------------------------------

By: Agent 0range (vicious@mbay.net)

INTRO/VERSE:

e|-----------------------------------------------------------|

b|-----------------------------------------------------------|

g|-----------------------------------7------------------9----|

d|--9-9-9-9--7--9-9-9-9--7--9-9-9-9--5--5-5-5-5--7-7-7--9----|

a|--7-7-7-7--5--9-9-9-9--7--9-9-9-9--5--5-5-5-5--7-7-7--7----|

e|--7-7-7-7--5--7-7-7-7--5--7-7-7-7-----3-3-3-3--5-5-5-------|

CHORUS/BRIDGE:(4x)

e|-----------------------------------------------------------|

b|-----------------------------------------------------------|

g|-----------7-7-7-7-----------------------------------------|

d|--9-9-9-9--7-7-7-7--7-7-7-7--9-9-9-9-----------------------|

a|--9-9-9-9--5-5-5-5--7-7-7-7--9-9-9-9-----------------------|

e|--7-7-7-7-----------5-5-5-5--7-7-7-7-----------------------|

SOLO: (h=hammer-on)

e|-----------------------------------------------------------|

b|-14h15-15-15-15-15-15-15-15--14h--15-15-15-15-15-15-15-15--|

g|-----------------------------------------------------------

d|-----------------------------------------------------------

a|-----------------------------------------------------------

e|-----------------------------------------------------------

e|-----------------------------------------------------------|

b|-14h15-15-15-15-15-15-15-15-15-15-15--14h15-15-15-15-15-15-|

g|-----------------------------------------------------------|

d|-----------------------------------------------------------|

a|-----------------------------------------------------------|

e|-----------------------------------------------------------|

REPEAT VERSE AND CHORUS THEN BRIDGE

==============================================================

Get this song at:  amazon.com sheetmusicplus.com

Share your thoughts

0 Comments found