Afi

Afi - Rabbits Are Roadkill On Route 37 Intro guitar tab

This is just the intro for Rabbits are Roadkill. It's tuned down 1/2 step

(Eb,Ab,Db,Gb,Bb,Eb). So here you go.

< > = harmonic

~ = let note ring

p = pull off

Eb---------------|------------|---------------|

Bb---------------|---------------|---------------|

Gb---------------|------------------|---------------|

Db------------------|------------------|------------------|

Ab------------------|------------------|------------------|

Eb------------------|------------------|------------------|

Eb---2---------2----|---2-------2--2---|

Bb-----3---------3--|-----3------3--3--|

Gb-4-----4-2-2-----2|-0-----0-----0--0-|

Db------------------|---------2~~~~~~--|

Ab------------------|------------------|

Eb------------------|------------------|

Eb---2---------2-3p2|-----2-------2--2--|

Bb-----3------------|-3-----3------3--3-|

Gb-4-----4-2-2------|---0-----0-----0--0|

Db------------------|-----------2~~~~~~-|

Ab------------------|-------------------|

Eb------------------|-------------------|

Get this song at:  amazon.com sheetmusicplus.com

Share your thoughts

0 Comments found