Afi

Afi - Dancing Through Sunday (solo) guitar tab

Band: AFI

Guitarist: Sir Jade Puget

Album: Sing The Sorrow

|--------11h-14p-11------11h-14p-11-------------------------------------------

|----11--------------14---------------14-11h-14p-11-----11h-14p-11----11------

|---b13---------------------------------------------13--------------13--------

|-----------------------------------------------------------------------------

|-----------------------------------------------------------------------------

|-----------------------------------------------------------------------------

|-----------------------------------------------------------------------------

|-----------------------------------------------------------------------------

|--13p11--13p11----11---------------------------------------------------------

|---------------13----13p11--13p11--------------------------------------------

|-----------------------------------------13p11--13p11--11p9--11p9------------

|-----------------------------------------------------------------------11--/-

|---6-----7------9-----10----11-----------------------------------------------

|--b9---b10---b12---b13---b14---9h11p9---7h9p7---6h7p6------------------------

|--------------------------------------------------------6h8p6h8--------------

|-----------------------------------------------------------------------------

|-----------------------------------------------------------------------------

|-----------------------------------------------------------------------------

|-----------------------------------------------------------------------------

|-16--11p8-16--11p8--16--12p9-16--12p9--16--11p8-16----14p11-----11h14--------

|-T---------T--------T---------T---------T--------T----------h12--------------

|-----------------------------------------------------------------------------

|-----------------------------------------------------------------------------

|-----------------------------------------------------------------------------

I wasnt quite sure how to write this out so Ill explain it a bit.

On the part with the T you tap the 16th fret and then pull off the 11 to the 8.

For you people who dont know about tapping ill explain again (Jade has such a different style i need to explain...that or i just dont know how to write the tab.)

You basically hammer on the 16th fret and pull off with your picking hand then pull off 11 to 8 with your other.

On the h12 and 11h14 part you just hammer on the 12 and then use a finger on your

picking hand to pick for the root note (11) for the hammer on 14 (Only do this if you�er not quick enough to use your pick.)

|--------------------------

|--------------------------

|--b8----h11-/-15---13-----

|--------------------------

|--------------------------

|--------------------------

Hammer on the 11 with your picking hand and slide to 15 with it.

On this part if you dont have a wammy bar you can do it as i have tabbed. But if you do just trill on 11 and 14 while gradually push down on the wanny bar. You have to do this really smoothly.

If you don�t have a wammy bar just trill the 11 and 14 then keep trilling down the neck.

|-----------------------------------------------------------

|--11h414p11 trill ------------------------11-13-11-13------

|---------------------down bend on 13-------13-----13-------

|-----------------------------------------------------------

|-----------------------------------------------------------

|-----------------------------------------------------------

Email me if you have any questions. Im positive in some of this tab. There were some

parts that i missed but nothing major.

Womenfolk55@hotmail.com ..... dont ask about the name i had it from when im was in

third grade.

AFI�s the best!!!!!!!!!1

Get this song at:  amazon.com sheetmusicplus.com

Share your thoughts

0 Comments found