Afi

Afi - The Days Of The Phoenix guitar tab

Tabbed by Broox

listen to the rhythm and speed of the song and youll get it

Intro: part 1

e|---5---5---5---2---2---2---3---3---3---0---0---0---5--3/5---7---7---7------|

B|-0---0---0---0---0---0---0---0---0---0---0---0---0---0-0--0---0---0--------|

G|---------------------------------------------------------------------------|

D|---------------------------------------------------------------------------|

A|---------------------------------------------------------------------------|

E|---------------------------------------------------------------------------|

Intro: Part 2

e|-----------5---------5-2-3-5-----5---2-3-5-----5---3-2---------------------|

B|-0-3-2-3-3---3-3-3-3---------3-3---3-------3-3---3-----0-------------------|

G|---------------------------------------------------------------------------|

D|---------------------------------------------------------------------------|

A|---------------------------------------------------------------------------|

E|---------------------------------------------------------------------------|

Verse: Played after bass P.M.---------| P.M.---------|

e|---------------------------------------------------------------------------|

B|----------------------2 times----------------------------------------------|

G|---------------------------------------------------------------------------|

D|-4-2-4-7-----2-------------------------------------------------------------|

A|-2-0-2-5-5-2-0-4--------then---------------5---------------7---------------|

E|---------3-0---2---------------------------3---------------5---------------|

Chorus

e|---------------------------------------------------------------------------|

B|-------------4-times-------------------------------------------------------|

G|-4--7----------------------------------------------------------------------|

D|-4--7--5----------------7--------------------------------------------------|

A|-2--5--5------then------7--------------------------------------------------|

E|-------3----------------5--------------------------------------------------|

Bridge: Part 1 x2

e|-------------------------

B|---------------------3---

G|-----0-------------0-----

D|---4---4--------4--------

A|-2------------2----------

E|-------------------------

Bridge: part 2 x2

---------------------3-3-3-2-2-0----------------------------

-0--0-0--3-3-3-2-2-2-0-0-0-0-0-0-3-3-3-5-5-5-2-2-2-3-3-2-2--

-4--4-4--4-4-4-4-4-4-------------0-0-0-0-0-0-0-0-0-0-0-0-0--

------------------------------------------------------------

------------------------------------------------------------

------------------------------------------------------------

ORDER:

Intro 1

Intro 2

Verse 1

Chorus

Intro 1

Verse 2

Chorus

Bridge 1

Bridge 2

Chorus

Intro 1

Intro 2

Get this song at:  amazon.com sheetmusicplus.com

Share your thoughts

0 Comments found