Afi

Afi - Rolling Balls guitar tab

-------------------------------------------------------------------------------

ROLLING BALLS - AFI

-------------------------------------------------------------------------------

tabbed by ryanleeper96@hotmail.com

INTRO x2 x1

e-|----------------------------------------|-----------------------------

B-|----------------------------------------|-----------------------------

G-|----------------------------9-----------|---------------------9-------

D-|----9-9-9--7--5-5-5--7-7-7--9--9-9-9----|----9-9-9-9-9-9-9-9--9--9--7-

A-|----9-9-9--7--5-5-5--7-7-7--7--9-9-9----|----9-9-9-9-9-9-9-9--7--9--7-

E-|----7-7-7--5--3-3-3--5-5-5-----7-7-7----|----7-7-7-7-7-7-7-7-----7--5-

VERSE

e-|----------------------------------------------------------------------

B-|----------------------------------------------------------------------

G-|----------------------------9-----------------------------------------

D-|----9-9-9--7--5-5-5--7-7-7--9--9-9-9----------------------------------

A-|----9-9-9--7--5-5-5--7-7-7--7--9-9-9----------------------------------

E-|----7-7-7--5--3-3-3--5-5-5-----7-7-7----------------------------------

CHORUS 1

e-|----------------------------------------------------------------------

B-|----------------------------------------------------------------------

G-|----12-12-12-12--7-7-7-7-----------9----------------------------------

D-|----12-12-12-12--7-7-7-7--9-9-9-9--9--9-9-9---------------------------

A-|----10-10-10-10--5-5-5-5--9-9-9-9--7--9-9-9---------------------------

E-|--------------------------7-7-7-7-----7-7-7---------------------------

e-|----------------------------------------------------------------------

B-|----------------------------------------------------------------------

G-|----12-12-12-12--7-7-7-7-----------9-9-9-9----------------------------

D-|----12-12-12-12--7-7-7-7--9-9-9-9--9-9-9-9----------------------------

A-|----10-10-10-10--5-5-5-5--9-9-9-9--7-7-7-7----------------------------

E-|--------------------------7-7-7-7-------------------------------------

CHORUS 2

e-|----------------------------------------------------------------------

B-|----------------------------------------------------------------------

G-|----12-12-12-12--7-7-7-7-----------9--11------------------------------

D-|----12-12-12-12--7-7-7-7--9-9-9-9--9--11------------------------------

A-|----10-10-10-10--5-5-5-5--9-9-9-9--7--9-------------------------------

E-|--------------------------7-7-7-7-------------------------------------

e-|----------------------------------------------------------------------

B-|----------------------------------------------------------------------

G-|----12-12-12-12--7-7-7-7-----------9-9-9-9----------------------------

D-|----12-12-12-12--7-7-7-7--9-9-9-9--9-9-9-9----------------------------

A-|----10-10-10-10--5-5-5-5--9-9-9-9--7-7-7-7----------------------------

E-|--------------------------7-7-7-7-------------------------------------

Palm mute breakdown

e-|----------------------------------------------------------------------

B-|----------------------------------------------------------------------

G-|------------------9-9--------------------------5-5-5-5----------------

D-|----7-7-7-7--5-5--9-9--9-9-------7-7-7-7--5-5--5-5-5-5----------------

A-|----7-7-7-7--5-5--7-7--9-9-------7-7-7-7--5-5--3-3-3-3----------------

E-|----5-5-5-5--3-3-------7-7-------5-5-5-5--3-3-------------------------

BRIDGE / OUTRO

e-|----------------------------------------------------------------------

B-|----------------------------------------------------------------------

G-|----------------------------------------------------------------------

D-|----7--7--------------------------------------------------------------

A-|----7--7--------------------------------------------------------------

E-|----5--5--------------------------------------------------------------

-------------------------------------------------------------------------------

Get this song at:  amazon.com sheetmusicplus.com

Share your thoughts

0 Comments found