Afi

Afi - Midnight Sun guitar tab

-------------------------------------------------------------------------------

MIDNIGHT SUN (SECRET SONG ON BLACK SAILS IN THE SUNSET) - AFI

-------------------------------------------------------------------------------

tabbed by nick (mxpx-7@mn.rr.com)

**Listen to recording for exact rhythm**

*= harmonic

intro

||-12--14-15--*12-----14-15-15----------------------

||-----0--0---*12--15-15-15-17----------------------

||--------------------------------------------------

||--------------------------------------------------

||--------------------------------------------------

||--------------------------------------------------

verse

||-------6-8--7--9----------------------------------

||-------6-8--7--9----------------------------------

||-9-7-9-7-9--8--10-12------------------------------

||-9-7-9-8-10-9--11-12-----repeat-------------------

||-7-5-7-8-10-9--11-10------------------------------

||-7-5-7-6-8--7--9--10------------------------------

Chorus

||--------------------------------------------------

||--------------------------------------------------

||-9999-9--9--10-10-99-12-12-11-11------------------

||-9999-10-10-10-10-77-12-12-9--9-------------------

||-7777-7- 7--8--8--77-10-10-9--9-------------------

||-7777-7--7--8--8-----10-10------------------------

Whoa Part

||----------------8--6-8--7-9-----------------------

||----------------8--6-8--7-9-----------------------

||--9-7-9-7-9-12--9--7-9--8-10----------------------

||--9-7-9-7-9-12--10-8-10-9-11---repeat--12-12------

||--7-5-7-5-7-10--10-8-10-9-11-----------12-11------

||--7-5-7-5-7-10--8--6-8--7-9------------10-9-------

Acoustic Breakdown

||--------------------------------------------------

||--------------------------------------------------

||-9999-9--9--10-10-99-12-12-11-11------------------

||-9999-10-10-------77-------9--9-------------------

||-7777-7- 7--8--8-----10-10------------------------

||--------------------------------------------------

w00t w00t :)

COPYRIGHT 2001

-------------------------------------------------------------------------------

Get this song at:  amazon.com sheetmusicplus.com

Share your thoughts

0 Comments found