Afi

Afi - God Called In Sick Today (live) guitar tab

God Called in Sick Today (live)

normal tuning

I dont know all of it but i think this sound pretty good.

This is my first tab so if it looks bad f#$k U

clean

|-------------------------------------------------------------------|

|-------------------------------------------------------------------|

|------3-----3---------2-----2---------2-----2--------3-----3-------|

|--5-5---5-5---5-5-3-3---3-3---3-3-0-0---0-0---0-0-1-1--1-1---1-1-0-|

|-------------------------------------------------------------------|

|-------------------------------------------------------------------|

|-------------------------------------------------------------------|

|----------6--------------------------------------------------------|

|------3-----3---------2-----2---------2-3-2-----------3-----3------|

|--5-5---5-----5-5-3-3---3-3---3-3-0-3-------3-0-0-1-1---1-1---1-1-0|

|-------------------------------------------------------------------|

|-------------------------------------------------------------------|

|-------------------------------------------------------------------|

|-------------------------------------------------------------------|

|------3-----3---------2-----2---------2-----2--------3-----3-------|

|--5-5---5-5---5-5-3-3---3-3---3-3-0-0---0-0---0-0-1-1--1-1---1-1-0-|

|-------------------------------------------------------------------|

|-------------------------------------------------------------------|

|-------------------------------------------------------------------|

|----------6--------------------------------------------------------|

|------3-----3---------2-----2---------2-3-2-----------3-----3------|

|--5-5---5-----5-5-3-3---3-3---3-3-0-3-------3-0-0-1-1---1-1---1-1-0|

|-------------------------------------------------------------------|

|-------------------------------------------------------------------|

Distortion

|-------------------------------------------------------------------|

|-------------------------------------------------------------------|

|-3333333-2222222-2222222-2222222-----------------------------------|

|-5555555-3333333-0000000-1111111-----------------------------------|

|-------------------------------------------------------------------|

|-------------------------------------------------------------------|

pm........................................

|-------------------------------------------------------------------|

|-------------------------------------------------------------------|

|-3333333-2222222-2222222-2222222-----------------------------------|

|-5555555-3333333-0000000-1111111-----------------------------------|

|-------------------------------------------------------------------|

|-------------------------------------------------------------------|

pm.......................

distortion

|-------------------------------------------------------------------|

|-------------------------------------------------------------------|

|-9--9-9---7--7-7-7-------------------------------------------------|

|-9--9-9---7--7-7-7--5--5-5---7--7-7-7------------------------------|

|-7--7-7---5--5-5-5--5--5-5---7--7-7-7------------------------------|

|-0--0-0---0--0-0-0--3--3-3---5--5-5-5------------------------------|

|-------------------------------------------------------------------|

|-------------------------------------------------------------------|

|-9--9-9---7--7-7-7-------------------------------------------------|

|-9--9-9---7--7-7-7--5--5-5---7--7-7-7---9--------------------------|

|-7--7-7---5--5-5-5--5--5-5---7--7-7-7---9--------------------------|

|-0--0-0---0--0-0-0--3--3-3---5--5-5-5---7--------------------------|

Distortion

|-------------------------------------------------------------------|

|------3-----3---------2-----2---------2-----2--------3-----3-------|

|--5-5---5-5---5-5-3-3---3-3---3-3-0-0---0-0---0-0-1-1--1-1---1-1-0-|

|-------------------------------------------------------------------|

|-------------------------------------------------------------------|

pm...................................................................

|-------------------------------------------------------------------|

|----------6--------------------------------------------------------|

|------3-----3---------2-----2---------2-3-2-----------3-----3------|

|--5-5---5-----5-5-3-3---3-3---3-3-0-3-------3-0-0-1-1---1-1---1-1-0|

|-------------------------------------------------------------------|

|-------------------------------------------------------------------|

pm........ ............... ........................

Distortion

|---------------------------------------------------|

|-9999--9-9---7777--7-7-----------------------------|

|-9999--9-9---7777--7-7--5555--5-5---7777-7-7-------|

|-7777--7-7---5555--5-5--5555--5-5---7777-7-7-------|

|------------------------3333--3-3---5555-5-5-------|

pm..... ....... ...... ......

|---------------------------------------------------|

|-9999--9-9---7777--7-7-----------------------------|

|-9999--9-9---7777--7-7--5555--5-5---7777-7-7-------|

|-7777--7-7---5555--5-5--5555--5-5---7777-7-7-------|

|------------------------3333--3-3---5555-5-5-------|

pm..... ....... ...... ......

Distortion

|-------------------------------------------------------------------|

|-------------------------------------------------------------------|

|-9--9-9---7--7-7-7-------------------------------------------------|

|-9--9-9---7--7-7-7--5--5-5---7--7-7-7------------------------------|

|-7--7-7---5--5-5-5--5--5-5---7--7-7-7------------------------------|

|-0--0-0---0--0-0-0--3--3-3---5--5-5-5------------------------------|

|-------------------------------------------------------------------|

|-------------------------------------------------------------------|

|-9--9-9---7--7-7-7-------------------------------------------------|

|-9--9-9---7--7-7-7--5--5-5---7--7-7-7---9--------------------------|

|-7--7-7---5--5-5-5--5--5-5---7--7-7-7---9--------------------------|

|-0--0-0---0--0-0-0--3--3-3---5--5-5-5---7--------------------------|

Get this song at:  amazon.com sheetmusicplus.com

Share your thoughts

0 Comments found