Afi

Afi - The Great Disappointment Bass guitar tab

AFI - The Great Disappointment

Standard Tuning

Intro

G|----|

D|----|

A|-4>-|

E|----|

Verse

G|-----------------------------------------------------------------|

D|-------4h6-------------4h6-------------4h6-------------7h9-------|

A|-4-4-4-----7---------------7-----4-4-4-----7---------------7-----|

E|-------------7-7-5-5-5-------7-7-------------7-7-5-5-5-------7-7-|

-Go back to intro then the last round of fours you hit the next octave G|-6>-|

-Verse

Prechorus

G|---------------------------------|

D|---------------------------------|

A|---------7-7-7-7---------9-9-9-9-|

E|-5-5-5-5---------7-7-7-7---------|

-Intro

-Vrse

-Prechorus

-Chorus2x

-Post Chorus

Chorus

G|-----------------|

D|-----------------|

A|-0>-------2>-4>>-|

E|----0>-2>--------|

Post Chorus

G|-----------------------------------|

D|---------2-----------------4-------|

A|-0-0-0-0---0-0-0-0-2-2-2-2---2-2-4-|

E|-----------------------------------|

Distorted Verse

G|-------------------------|---------|

D|-------------------------|---------|

A|-4-4-7-7-7-4-0-0-7-7-7-9-|-12>-14>-|

E|-------------------------|---------|

-Intro

-Chorus

Chorus extension

G|----------------|-------------------------|

D|----------------|-------------------------|

A|-0>-------2>-4>-|-0>-------4>-0>----2>----|

E|----0>-2>-------|----0>-2>-------0>----2>-|

Post Chorus

G|---------6-|

D|-----------|

A|-4-4-4-4---|

E|-----------|

Bridge

G|---------------------------------|-------------|

D|---------------------------------|-------------|

A|-4-4-2-2-4-4-7-7-4-4-2-2---------|-11-11-11-11-|

E|-------------------------4-4-5-5-|-------------|

2nd Part of Bridge

G|-------------------------------------------|

D|-------------------------------------------|

A|-----------------------------------------4-|

E|-5-5-5-4-4-4-0~-0-0-0-0-0-2~-2-2-2-0-0-0---|

Verse Variation

G|---------------------------------------------------------------------|

D|-------4h6-------------4h6-------------4h6-------------7h9-7-6-7-6-4-|

A|-4-4-4-----7---------------7-----4-4-4-----7-------------------------|

E|-------------7-7-5-5-5-------7-7-------------7-7-5-5-5---------------|

-second time playing variation of verse play the prechorus in place of second set of 5's.

-Intro

-Chorus (extended)

-Outro is acoustic guitar Added by tabs-database.com and our distinguished partners

Get this song at:  amazon.com sheetmusicplus.com

Share your thoughts

0 Comments found